Oops, an error
Loading. Please wait.

Let Your Ego Die Tab

199 views 3 this week
no commentswrite comment
1 2 3 4 5
please rate
add to favorites
launch autoscroll
font size
0
reset
how to read this tab
guitar tuner
Autoscroll
slow
fast
+/-
esc
set tempo
stop
Help us to improve Ultimate-Guitar.com Take our survey!
×
Let Your Ego Die by Marilyn Manson
Guitarist: Daisy Berkowitz
Album: Family Jams
Dif.: 8

NOTE: * = strum 8x

Intro
G|-7-7-7-7-7-7-7-7-|-%-|-2-2-2-2-2-2-2-2-|-%-|
D|-7-7-7-7-7-7-7-7-|-%-|-2-2-2-2-2-2-2-2-|-%-|
A|-5-5-5-5-5-5-5-5-|-%-|-0-0-0-0-0-0-0-0-|-%-|

Fill 1
G|---7----5^----7----10^-(10)^-(10)-|-%-|
D|-0----0-----0----0----------------|-%-|
          ^ ¼ step      ^--¼-step^
For last bend ¼ step then back down to bracketed 10 then back up ¼ then back 
down to bracketed 10

Fill 1 (cont.)
G|---12----13----5----5h7----|
D|-0-----0-----0----0--------|

Verse 2 (“She cuts the paper……”)
E|-------5-|-%-|-%-|-%-|-----------------------------
B|-0-0-0---|-%-|-%-|-%-|-----------------------------
G|---------|-%-|-%-|-%-|-2-2-2---2---X-X--2-2-2--2---
D|---------|-%-|-%-|-%-|-2-2-2---2---X-X--2-2-2--2---
A|---------|-%-|-%-|-%-|-0-0-0---0---X-X--0-0-0--0---

Verse 2 (cont.)
B|---------------------3-3-3-3---------------------|
G|-4-4-4-4-------------4-4-4-4-4-4-4-4-6-6-7-6-----|
D|-4-4-4-4-5-5-5-5-7*--4-4-4-4-5-5-5-5-7-7-7-7-----|
A|-2-2-2-2-5-5-5-5-7*--2-2-2-2-5-5-5-5-7-7-7-7-----|
E|---------3-3-3-3-5*----------3-3-3-3-5-5-5-5-----|

Chorus (“Like to see you……”)
G|-7-7-7-5-7--10-10-10-10-2-5--7-7-7-5-7--10-10-10--9---10-10-|
D|-7-7-7-5-7--10-10-10-10-2-5--7-7-7-5-7--10-10-10--9---10-10-|
A|-5-5-5-3-5---8--8--8--8-0-3--5-5-5-3-5---8--8--8--7---8--8--|

Fill 2
G|-7------5------|
D|-7------5------|
A|-5------3------|

Interlude (Gtr. 1)
G|-2*-5*--7--5--7--5--7--5--|
D|-2*-5*--7--5--7--5--7--5--|
A|-0*-3*--5--3--5--3--5--3--|

Interlude/Under-Solo (Synth. Arr. For Gtr. 2)
B|-10-------13--------15-13-15-13-15-13-|
G|-X--------X----------X--X--X--X--X--X-|
D|-7--------10--------12-10-12-10-12-10-|

Solo (Gtr. 1) (w/ wah)
B|-12\10-10-10-10-10-10-10-10--10\8-8-8-8--10p8-10p8-10p8---

Solo (Gtr. 1) (cont.) (w/ wah)
G|-9-9-9-10-10-10-9-9-9-5-5-5-7-7-7-5-7-7-5/---

Solo (Gtr. 1) (cont.) (w/ wah)
B|---------------------------------10-10-10--
G|-7/8-8^-8^-8\7---7/8-8^-8^-8\7-5----------

Solo (Gtr. 1) (cont.) (w/ wah)
E|---------------------------12-12-12-10-----------------|
B|------------------------10-------------13---10-10--12--|
G|-5-5--0---0--------------------------------------------|
D|--------7---7----7---7---------------------------------|
A|---------------0---0-----------------------------------|

Solo P2 (Gtr. 1) (w/ wah)
E|---------15-13-12-17-15-----17-15----17-17-18-18-19-19-20-
B|--13-13-----------------17--------17-17-17-18-18-19-19-20-

Solo P2 (Gtr. 1) (cont.) (w/ wah)
B-------------------------13-13-13-13-13---------------------
G--14-14-14-14-14--12-12---x--x--x--x--x---------------------
D---x--x--x--x--x---x--x--10-10-10-10-10---------------------
A--12-12-12-12-12--10-10------------------3-0-0--3--0--3--0--

Solo P2 (Gtr. 1) (cont.) (w/ wah)
B|---------------------------------------13-13-------------
G|---2---14-14-14-14-14-14----------------x--x-------------
D|---2----x--x--x--x--x--x---------10-10-10-10-------------
A|-0-0---12-12-12-12-12-12--10-10---------------12-12-12---

Solo P2 (Gtr. 1) (cont.) (w/ wah)
B|-------------------13-13-13-13---16-16-16-16-16--16-16-16-
G|--------------------x--x--x--x----x--x--x--x--x-----------
D|-------------------10-10-10-10---13-13-13-13-13-----------
A|--12-12-12--10-10-----------------------------------------

Solo P2 (Gtr. 1) (cont.) (w/ wah)
B--16-16-16-16-\-----------------|
G---x--x--x--x-----12---14---2---|
D--13-13-13-13-\----x----x---2---|
A------------------10---12---0---|

Verse 3 (Gtr. 1)
E|-------------------------------------------9--9--9--9-|
B|---------------------3-3-3----------------10-10-10-10-|
G|-4-4-4-4-------------4-4-4--4-4-4----------9--9--9--9-|
D|-4-4-4-4-5-5-5-5-7*--4-4-4--5-5-5--7------------------|
A|-2-2-2-2-5-5-5-5-7*--2-2-2--5-5-5--7------------------|
E|---------3-3-3-3-5*---------3-3-3--5------------------|

End (On the B5 chords turn volume down ½ way)
G|-7------4------|-%-|-%-|-%-|
D|-7------4------|-%-|-%-|-%-|
A|-5------2------|-%-|-%-|-%-|
Control Volume With A Pedal and after 3rd time start fading out

Song Structure: -
Drums
Intro
Drums Verse (“Clock is a ring……”)
Pluck Behind Nut (“Time……..”)
Drums Verse (“Cigarettes……”)
Distortion Fade In (“Side……”)
Bass For Bit (4 bars)
Fill 1
Verse 2
Pik Scrape On A + D String
Chorus
Fill 2
Interlude (Gtr. 1)/Interlude (Gtr. 2)
Solo (Gtr. 1)/Under Solo (Gtr. 2)
Solo P2 (Gtr. 1)/Under Solo (Gtr. 2)
Verse 3 (“Nervous from the sex……”)
Bass Fill
Chorus
End (Gtr. 1)/Bass Outro

Holy motherfucking crack shit!!!!!! 
That was the biggest bitch I’ve ever tabbed. 
I don’t know about the solo that much. I knew 
a little bit of it but I didn’t know to much. 
Good luck with it. If you have any comments, corrections, suggestions or 
even requests email me at toxic345x@yahoo.ca
===========
Song: Let Your Ego Die
Artist: Marilyn Manson
Album: The Family Jams
As tabbed by Joe Muggah

f = finger slide

Intro (each hit 2 times)
e----------------------------------------------------------
B----------------------------------------------------------
G--7-7-7-7--7-7-7-7----------------------------------------
D--7-7-7-7--7-7-7-7--7-7-7-7--7-7-7-7----------------------
A--5-5-5-5--5-5-5-5--7-7-7-7--7-7-7-7----------------------
E--------------------5-5-5-5--5-5-5-5----------------------

Riff
e----------------------------------------------------------
B----------------------------------------------------------
G-----7-----5^-----7-----10^-----7-----5^-----7-----10^----
D--0-----0------0-----0-------0-----0------0-----0---------
A----------------------------------------------------------
E----------------------------------------------------------

(continued)
e----------------------------------------------------------
B----------------------------------------------------------
G-----12-----13-----5-----5h7------------------------------
D--0------0------0-----0-----------------------------------
A----------------------------------------------------------
E----------------------------------------------------------

Verse 1
e--------5-------5-------5-------5-------------------------
B--0-0-0---0-0-0---0-0-0---0-0-0---------------------------
G----------------------------------7-7-7--7--x-x--7-7-7--7-
D----------------------------------7-7-7--7--x-x--7-7-7--7-
A----------------------------------5-5-5--5--x-x--5-5-5--5-
E----------------------------------------------------------
("She cuts your paper...")

(continued)
e----------------------------------------------------------
B-------------------------------------------3-3-3-3--------
G--4-4-4-4--x-x----------------------------4-4-4-4--x-x---
D--4-4-4-4--x-x--5-5-5-5--7-7-7-7-7-7-7-7--4-4-4-4--x-x---
A--2-2-2-2--x-x--5-5-5-5--7-7-7-7-7-7-7-7--2-2-2-2--x-x---
E-----------------3-3-3-3--5-5-5-5-5-5-5-5-----------------

(continued)
e----------------------------------------------------------
B----------------------------------------------------------
G--4-4-4-4--6-6-6-7-7-6-6---f-----------------------------
D--5-5-5-5--7-7-7-7-7-7-7---f-----------------------------
A--5-5-5-5--7-7-7-7-7-7-7---f-----------------------------
E--3-3-3-3--5-5-5-5-5-5-5----------------------------------

Chorus A (Guitar 1)
e----------------------------------------------------------
B----------------------------------------------------------
G--7-7-7-5-7-10-10-10-10----5--7-7-7-5-7-10-10-10-910-10--
D--7-7-7-5-7-10-10-10-10--7-5--7-7-7-5-7-10-10-10-910-10--
A--5-5-5-3-5--8--8--8--8--7-3--5-5-5-3-5--8--8--8-7-8--8--
E-------------------------5--------------------------------
("I can see you baby...")

Chorus B (Synth arranged for Guitar 2)
e--------------------------------------------13--13--------
B--15---13--10----10--13-------15---13--10----x---x--------
G---x----x---x-----x---x--------x----x---x---10--10--------
D--12---10---7-----7--10-------12---10---7-----------------
A----------------------------------------------------------
E----------------------------------------------------------

Fill	     Bridge A (Guitar 1)
e--------|-------------------------------------------------
B--------|-------------------------------------------------
G--7---5-|-------------------5-5-5-5-5-5-5-5--7-5-7-5-7-5--
D--7---5-|--7-7-7-7-7-7-7-7--5-5-5-5-5-5-5-5--7-5-7-5-7-5--
A--5---3-|--7-7-7-7-7-7-7-7--3-3-3-3-3-3-3-3--5-3-5-3-5-3--
E--------|--5-5-5-5-5-5-5-5--------------------------------

Bridge B (Synth arranged for Guitar 2) 
e----------------------------------------------------------
B----------------------------------------------------------
G--10-----13-----15--13--15--13--15--13--------------------
D---x------x------x---x---x---x---x---x--------------------
A---7-----10-----12--10--12--10--12--10--------------------
E----------------------------------------------------------

Solo
e----------------------------------------------------------
B--1210-10-10-10--108-10p8-10p8-10p8---------------------
G---------------------------------------9-9-10-10-9-9-5-5--
D----------------------------------------------------------
A----------------------------------------------------------
E----------------------------------------------------------

(continued)
e----------------------------------------------------------
B----------------------------------------------------------
G--7-7-7-5-7-5-5---7/8-8^-8^-87--7/8-8^-8^-87-5---------
D---------------------------------------------------7-7-7--
A----------------------------------------------------------
E----------------------------------------------------------

(continued)
e----------------------------12-12-10----------------------
B------------------------10-----------13--10-10--12-12-----
G--5-5-----------------------------------------------------
D-------5---5---7---7--------------------------------------
A---------0---0---0----------------------------------------
E----------------------------------------------------------

(continued)
e---------15-13-12-17-15-----17-15----17-17-18-18-19-19-20-
B--13-13-----------------17--------17-17-17-18-18-19-19-20-
G----------------------------------------------------------
D----------------------------------------------------------
A----------------------------------------------------------
E----------------------------------------------------------

(continued)
e----------------------------------------------------------
B-------------------------13-13-13-13-13-------------------
G--14-14-14-14-14--12-12---x--x--x--x--x-------------------
D---x--x--x--x--x---x--x--10-10-10-10-10-------------------
A--12-12-12-12-12--10-10-----------------------------------
E----------------------------------------8-5-5--8--5--8--5-

(continued)
e----------------------------------------------------------
B----------------------------------------13-13-------------
G--------14-14-14-14-14-14----------------x--x-------------
D----7---x--x--x--x--x--x---------10-10-10-10-------------
A----x---12-12-12-12-12-12--10-10---------------12-12-12---
E--8-5----------------------------------------------------

(continued)
e----------------------------------------------------------
B-------------------13-13-13-13---16-16-16-16-16--16-16-16-
G--------------------x--x--x--x----x--x--x--x--x-----------
D-------------------10-10-10-10---13-13-13-13-13-----------
A--12-12-12--10-10-----------------------------------------
E----------------------------------------------------------

(continued)
e----------------------------------------------------------
B--16-16-16-16--------------------------------------------
G---x--x--x--x-----12---14---------------------------------
D--13-13-13-13-----x----x---7----------------------------
A------------------10---12---x-----------------------------
E----------------------------5----------------------------

Verse 2
e--------------------------------------------------9--9--9-
B---------------------------------3-3-3-----------10-10-10-
G--4-4-4--------------------------4-4-4--4-4-4-----9--9--9-
D--4-4-4--5-5-5--7-7-7-7-7-7-7-7--4-4-4--5-5-5--7----------
A--2-2-2--5-5-5--7-7-7-7-7-7-7-7--2-2-2--5-5-5--7----------
E---------3-3-3--5-5-5-5-5-5-5-5---------3-3-3--5----------

Outro
e----------------------------------------------------------
B----------------------------------------------------------
G--7-----4-----7-----4-----7-----4-----7-----4-------------
D--7-----4-----7-----4-----7-----4-----7-----4-------------
A--5-----2-----5-----2-----5-----2-----5-----2-------------
E----------------------------------------------------------


Intro
Riff
Verse 1
Chorus A, B
Fill
Bridge A, B
Bridge B, Solo
Verse 2
Chorus A, B
Outro


==================================================================


        LET YOUR EGO DIE....
	The family jams. STARTS WITH DRUM MACHINE. then play

	D chord to an A.
	clock is a ring......then	
        make some noise.
	
	fade in with a D then play
	( ~ let ring)
	D |77--5~--77--10~----|   
	A |55--3~--55--8~-----|   x2
	
	G |77--8~--55--7~--|
	D |55--6~--33--5~--|

snare comes in..

	G |------2-------2-------2-------2-|
	D |--------------------------------|	
	A |2-2-2-0-2-2-2-0-2-2-2-0-2-2-2-0-|

 go straight to..

	D |777~-777~-777~-777~-|
	A |555~-555~-555~-555~-|

t h e n . . .	(riff A)

	D |444~---------------|		
	A |222~-555~-777~-777~|	
	E |-----333~-555~-555~|	  x2

when everything stops, just before the chorus.
this bass part is cool so just play it on clean.
		
	D |--7-7--|
	A |-------|
	E |---5-5-|

	The guitar isn't playing the melody exactly, the keyboard is, and the
bass is playing it too, so this may sound a bit wrong.
		( > accent the note )
          	(riff B)
           > >         > >
	A |7-7-8-9-9-9-9-9-|
	D |5-5-6-7-7-7-7-7-|  x8

	tempo speeds up.
play D~---C~
then this rifff
(solo is during this)

	D |--------5-5-5-5-7-5-7-5-7-|
	A |7-7-7-7-3-3-3-3-5-3-5-3-5-|
	E |5-5-5-5-------------------|   x8

play riff A,and B x2

fade out with D~--C~

 Dave Jones.
comments
We did not receive enough feedback on this tab! Please rate:
print report bad tab
1 2 3 4 5
I want to post or [tab]
guest
You may want to rate the tab now too:
select rating
Please do not post tabs as comments. Select "correction" instead!