Oops, an error
Loading. Please wait.

Little Horn bass

version 2
version 2

Whole song

Interactive

1,214 views 1 this week
no commentswrite comment
1 2 3 4 5
x 3
add to favorites
×
Save as Personal and add changes to this tab that will be seen only by you. Learn more ›
×
You can save this tab as Personal to edit and correct it or add notes. All changes will be seen only by you. Learn more »
launch autoscroll
font size
0
reset
guitar tuner
edit
Autoscroll
slow
fast
+/-
esc
set tempo
stop
Band    : Marilyn Manson
Song    : Little Horn
Album   : Anti-Christ Superstar
Bassist : Twiggy Ramirez
Tuning  : Drop D

Intro / Verse :

1|-----------------------------------------------------------------------|
2|-----------------------------------------------------------------------|
3|-----------------------------------------------------------------------|
4|-3-0-0--3-0-0--3-0-0--3-0-0--3-0-5--3-0-0--3-0-0--3-0-0--3-0-0--6-5-3--|

Pre - Chorus :
Play this 3 times and then ->
1|--------------------------|-------------------|
2|--------------------------|-------------------|
3|--------------------------|-------------------|
4|-6---6---6---6---6-5-0-5--|--6---6---6---6-6--|

Chorus :

1|------------------------------------------------------|
2|------------------------------------------------------|
3|------------------------------------------------------|
4|--0---0-6-3---5-1--3-0-0--3-0-0--3-0-0--3-0-0--3-0-5--|

Pro - Chorus :

1|------------|
2|------------|
3|------------|
4|--5---------|

Bridge :

1|------------------------------|---------------------------------|
2|------------------------------|---------------------------------|
3|------------------------------|---------------------------------|
4|--6--5--10--10 / 12--0-0-0-0--|--6--5--10--10 / 12--1-1-1-1-0---|



Song Structure :

Intro
Verse
Pre Chorus
Chorus
Pro Chorus
Verse
Pre Chorus
Chorus
Pro Chorus
Bridge
Intro
Verse
Chorus
Pro Chorus

            
            
Suggest correction
Creating personal tab
Creating personal tab
You can edit any tab online and save it as your Personal.

You can edit, replace or remove any tab part or add personal notes – all changes will be seen only by you.

Personal tabs can be accessed anytime from any device, even offline.
Learn more »
Give kudos to tab author, rate the tab!
1 2 3 4 5
comments
print report bad tab
guest
You may want to rate the tab now too:
select rating
Wanna post a correction for this tab? Suggest correction