Oops, an error
Loading. Please wait.

Lunchbox bass

version 4
version 4

Whole song

Interactive

6,155 views 3 this week
3 commentsread comments
1 2 3 4 5
x 7
add to favorites
×
Save as Personal and add changes to this tab that will be seen only by you. Learn more ›
×
You can save this tab as Personal to edit and correct it or add notes. All changes will be seen only by you. Learn more »
launch autoscroll
font size
0
reset
guitar tuner
backing track
0:00
0:00
edit
Autoscroll
slow
fast
+/-
esc
set tempo
stop
Author
Difficulty
Song:   Lunchbox
Artist: Marilyn Manson
Year:   1994
Album:  Portrait of an American Family

Tuning: Standard EADG

___________________________________________________________________________
update 6/28/2008
-----------------
just changed the verse riff accordingly to the way the artist (gidget gein) plays it. 
the same notes but makes a slight difference in the sound.
___________________________________________________________________________


h- hammer-on
p- pull-off
/- slide
r- let ring

-Guitar Intro-

INTRO + VERSE  "I bring you"
|-------------------------------------77---|
|-0h2-2-000-5-00-77----0h2-2-000-5-00---5--|
|------------------5---------------------5-|
|-------------------5----------------------|
Play until chorus.

Right before chorus hit this note:
|----|
|----|
|----|
|-0r-|

CHORUS (I wanna grow up...)
|--9-----9-9---12-------------------------19-------19--19------------------|
|------------------------1212121010----------------------------------------|
|-7--7-77-7--10--10-1010-----------1212-17--17-1717--17--------------------|
|---------------------------------------------------------0000000000000000-|

|--9-----9-9---12----------------------------------------------------------|
|------------------------1212121010-------12-------12--12------------------|
|-7--7-77-7--10--10-1010-----------1212------------------------------------|
|---------------------------------------10--10-1010--10---0000000000000000-|


Repeat Verse


CHORUS 2
|--9-----9-9---12-------------------------19-------19--19------------------|
|------------------------1212121010----------------------------------------|
|-7--7-77-7--10--10-1010-----------1212-17--17-1717--17--------------------|
|---------------------------------------------------------0000000000000000-|

|--9-----9-9---12----------------------------------------------------------|
|------------------------1212121010-------12-------12--12------------------|
|-7--7-77-7--10--10-1010-----------1212---------------------7755----7755---|
|---------------------------------------10--10-1010--10---00----7700----77-|


POST-CHORUS2
|-------------------------------------|
|-------------------------------------|
|---7755----7755----7755----7755------|
|-00----7700----7700----7700----77-0r-|

Start playing the verse again when the keyboard comes in.

REPEAT CHORUS 1

OUTRO
|--------------------------------|
|--------------------------------|
|-5-------5-------5-------5------|
|---3-0r----3-0r----3-0r----3-0r-|


LET LAST NOTE RING AND FADE OUT
Suggest correction
Creating personal tab
Creating personal tab
You can edit any tab online and save it as your Personal.

You can edit, replace or remove any tab part or add personal notes – all changes will be seen only by you.

Personal tabs can be accessed anytime from any device, even offline.
Learn more »
comments
print report bad tab
3 comments total.
+2 reply
20loves 10 Dec 11, 2010 04:13 PM

actaly twiggy played bass on this album

guest
You may want to rate the tab now too:
select rating
Wanna post a correction for this tab? Suggest correction