Oops, an error
Loading. Please wait.

Mechanical Animals album bass

version 1
version 1

Album

Whole song

Interactive

284 views 1 this week
no commentswrite comment
1 2 3 4 5
3 more votes to show rating
add to favorites
×
Save as Personal and add changes to this tab that will be seen only by you. Learn more ›
×
You can save this tab as Personal to edit and correct it or add notes. All changes will be seen only by you. Learn more »
launch autoscroll
font size
0
reset
guitar tuner
edit
Autoscroll
slow
fast
+/-
esc
set tempo
stop
Author
Difficulty
ALBUM = MECHANICAL ANIMALS, 1998.
ARTIST = MARILYN MANSON.
BASSIST = TWIGGY RAMIREZ.
DIFFICULTY = NOVICE.
TUNING = ENTIRE ALBUM IS IN E-STANDARD (E-A-D-G)

TRACK LISTING
1. GREAT BIG WHITE WORLD
2. THE DOPE SHOW
3. MECHANICAL ANIMALS
4. ROCK IS DEAD
5. DISASSOCIATIVE
6. THE SPEED OF PAIN
7. POST HUMAN
8. I WANT TO DISAPPEAR
9. I DON'T LIKE THE DRUGS (BUT THE DRUGS LIKE ME)
10. NEW MODEL N0. 15
11. USER FRIENDLY
12. FUNDAMENTALLY LOATHSOME
13. THE LAST DAY ON EARTH - NO BASS
14. COMA WHITE


ENJOY ;)

1. GREAT BIG WHITE WORLD

[Intro] - No Bass

[Verse] (Enter with vocals)                       x4
G|--------------------|-------------------------|
D|o-------------------|------------------------o|
A|o---10------11------|---12-------------------o|
E|--------8-------8---|---------8---------------|

[Break] - No Bass

[Bridge] (Play entire thing twice)                                     x4
G|----------------------------------|------------------------------------|
D|----------------------------------|o----------------------------------o|
A|----------------------------------|o----------------------------------o|
E|--8-8-8-8-8-8---8---8-8-8--8-8-8--|--6-8-8-8-8-8---8---8-8-8--8-8-8----|

[Pre-Chorus]                                                      x4
G|------------------------------|-------------------------------|
D|o-----------------------------|------------------------------o|
A|o-----------------------------|------------------------------o|
E|--6-6-6--6--6-4--4-4---4---6--|--8-8-8--8--8-8--8-8---8---8---|

[Chorus]
G|-----------------------------|----------------------------|-----------------------------|
D|-----------------------------|----------------------------|-----------------------------|
A|-----------------------------|----------------------------|-----------------------------|
E|--1--1--1-1--1--1-1--1-1-1-1-|-4--4--4-4--4--4-4--4-4-4-4-|-8--8--8-8--8--8-8--8-8-8-8--|

G|-----------------------------|-----------------------------|-------------------------------|
D|-----------------------------|-----------------------------|-------------------------------|
A|-----------------------------|-----------------------------|-------------------------------|
E|-8-6-6--6-6--6--6-6--6-6-6-6-|-6-4-4--4-4--4--4-4--4-4-4-4-|-4-3-3--3--3-3-3-3-3-3-2-2-2-2-|

[Verse]                                           x6
G|--------------------|-------------------------|
D|o-------------------|------------------------o|
A|o---10------11------|---12-------------------o|
E|--------8-------8---|---------8---------------|

[Pre-Chorus]                                                      x4
G|------------------------------|-------------------------------|
D|o-----------------------------|------------------------------o|
A|o-----------------------------|------------------------------o|
E|--6-6-6--6--6-4--4-4---4---6--|--8-8-8--8--8-8--8-8---8---8---|

[Chorus 2] (Slightly Different)
G|-----------------------------|----------------------------|-----------------------------|
D|-----------------------------|----------------------------|-----------------------------|
A|-----------------------------|----------------------------|-----------------------------|
E|--1--1--1-1--1--1-1--1-1-1-1-|-4--4--4-4--4--4-4--4-4-4-4-|-8--8--8-8--8--8-8--8-8-8-8--|

G|-----------------------------|----------------------------|----------------------------|
D|-----------------------------|----------------------------|----------------------------|
A|-----------------------------|----------------------------|----------------------------|
E|-8-6-6--6-6--6--6-6--6-6-6-6-|-1--1--1-1--1--1-1--1-1-1-1-|-4--4--4-4--4--4-4--4-4-4-4-|

G|-----------------------------|-----------------------------|-------------------------------|
D|-----------------------------|-----------------------------|-------------------------------|
A|-----------------------------|-----------------------------|-------------------------------|
E|-8-6-6--6-6--6--6-6--6-6-6-6-|-6-4-4--4-4--4--4-4--4-4-4-4-|-4-3-3--3--3-3-3-3-3-3-2-2-2-2-|

[Bridge]                                                                   x3
G|----------------------------------|------------------------------------|
D|----------------------------------|o----------------------------------o|
A|----------------------------------|o----------------------------------o|
E|--8-8-8-8-8-8---8---8-8-8--8-8-8--|--6-8-8-8-8-8---8---8-8-8--8-8-8----|

Rest for 'Guitar only' end of bridge.

[Chorus 3 / Outro]
G|-----------------------------|----------------------------|------------------------------|
D|o-----------------------------|----------------------------|-----------------------------|
A|o-----------------------------|----------------------------|-----------------------------|
E|--1--1--1-1--1--1-1--1-1-1-1-|-4--4--4-4--4--4-4--4-4-4-4-|-8--8--8-8--8--8-8--8-8-8-8---|

G|-----------------------------|----------------------------|----------------------------|
D|-----------------------------|----------------------------|----------------------------|
A|-----------------------------|----------------------------|----------------------------|
E|-8-6-6--6-6--6--6-6--6-6-6-6-|-1--1--1-1--1--1-1--1-1-1-1-|-4--4--4-4--4--4-4--4-4-4-4-|
                                                                                         
    x2
G|-----------------------------|-----------------------------|--------------------------------|
D|-----------------------------|-----------------------------|-------------------------------o|
A|-----------------------------|-----------------------------|-------------------------------o|
E|-8-6-6--6-6--6--6-6--6-6-6-6-|-6-4-4--4-4--4--4-4--4-4-4-4-|-4-3-3--3--3-3-3-3-3-3-2-2-2-2--|


2. THE DOPE SHOW


[Intro / Verse / Bridge]                 x8
G|-----------------|-------------------|
D|o----------------|------------------o|
A|o----------------|-5-5--3-3--3-3----o|
E|--0--0--0-0--3-0-|---------------3---|


[Chorus]

            x2
G|-----------------------|--------------------|-----------------------|------------------------------|
D|o--2---2-2--2-2--2-2--2/5---5-5--5-5--5-5--5\0---0-0---0-0---0-0--0-|-----------------------------o|
A|o----------------------|--------------------|-----------------------|-3---3-3---3-3---3-3---3-3-2-o|
E|-----------------------|--------------------|-----------------------|------------------------------|

[Post-Chorus]                            x2
G|-----------------|-------------------|
D|o----------------|------------------o|
A|o----------------|-5-5--3-3--3-3----o|
E|--0--0--0-0--3-0-|---------------3---|

[Bridge]                                            x3
G|------------------------|-----------------------|
D|o--2--2-----2/5--5-----5/7--7-----7\0--0-----0-o|
A|o-----------------------|----------------------o|
E|------------------------|-----------------------|

G|--------------------------|------------------------|
D|--------------------------|------------------------|
A|--7-----7--7--5------5--5-|-3-----3--3-------------|
E|--------------------------|-------------3-----3--3-|

[Verse 2]                                x4
G|-----------------|-------------------|
D|o----------------|------------------o|
A|o----------------|-5-5--3-3--3-3----o|
E|--0--0--0-0--3-0-|---------------3---|


[Chorus 2]                                                                                
            x2
G|-----------------------|--------------------|-----------------------|------------------------------|
D|o--2---2-2--2-2--2-2--2/5---5-5--5-5--5-5--5\0---0-0---0-0---0-0--0-|-----------------------------o|
A|o----------------------|--------------------|-----------------------|-3---3-3---3-3---3-3---3-3-2-o|
E|-----------------------|--------------------|-----------------------|------------------------------|

[Post-Chorus 2]                          x2
G|-----------------|-------------------|
D|o----------------|------------------o|
A|o----------------|-5-5--3-3--3-3----o|
E|--0--0--0-0--3-0-|---------------3---|

[Bridge 2]                                          x3
G|------------------------|-----------------------|
D|o--2--2-----2/5--5-----5/7--7-----7\0--0-----0-o|
A|o-----------------------|----------------------o|
E|------------------------|-----------------------|

G|--------------------------|------------------------|
D|--------------------------|------------------------|
A|--7-----7--7--5------5--5-|-3-----3--3-------------|
E|--------------------------|-------------3-----3--3-|


[Chorus 3]                                                                                
            x2
G|-----------------------|--------------------|-----------------------|------------------------------|
D|o--2---2-2--2-2--2-2--2/5---5-5--5-5--5-5--5\0---0-0---0-0---0-0--0-|-----------------------------o|
A|o----------------------|--------------------|-----------------------|-3---3-3---3-3---3-3---3-3-2-o|
E|-----------------------|--------------------|-----------------------|------------------------------|

[Outro]                                  x4
G|-----------------|-------------------|
D|o----------------|------------------o|
A|o----------------|-5-5--3-3--3-3----o|
E|--0--0--0-0--3-0-|---------------3---|


3. MECHANICAL ANIMALS


[Intro / Verse]
G|--------------------|----------------------|--------------------|----------------------|
D|o-------------------|--5--5--5--4--4--2----|--------------------|--5--5--5--4--4--2----|
A|o-------------------|----------------------|--------------------|----------------------|
E|--0-----0--0-----0--|----------------------|--0-----0--0-----0--|----------------------|
                                                                                     x3
G|-------------------|--------------------|--------------------|---------------------|
D|-------------------|--------------------|--------------------|--------------------o|
A|--3----3--3-----3--|---3----3--3-----3--|---2----2--2-----2--|---7----7--7-----7--o|
E|-------------------|--------------------|--------------------|---------------------|


[Chorus]
G|------------------|-----------------|-----------------|------------------|-----------------|
D|------------------|-----------------|------------2--4-|-4---4----4-4-4-4-|-----------------|
A|------------------|-----------------|-----------------|------------------|-3---3-3-3---3-3-|
E|--3---3-3-3---3-3-|-3--3----3-3-3-3-|-2---2-2-2-------|------------------|-----------------|

G|------------------|-----------------|-------------------|
D|------------------|-----------------|-------------------|
A|--3--3----3-3-3-3-|-3---3-3-3---3-3-|--3--3----3-3-3-3--|
E|------------------|-----------------|-------------------|

G|------------------|-----------------|-----------------|------------------|-----------------|
D|------------------|-----------------|------------2--4-|-4---4----4-4-4-4-|-----------------|
A|------------------|-----------------|-----------------|------------------|-3---3-3-3---3-3-|
E|--3---3-3-3---3-3-|-3--3----3-3-3-3-|-2---2-2-2-------|------------------|-----------------|

G|------------------|-----------------|-------------------|
D|------------------|-----------------|-------------------|
A|--3--3----3-3-3-3-|-2---2-2-2---2-2-|--7--7----7-7-7-7--|
E|------------------|-----------------|-------------------|

[Acoustic / Bridge] - No Bass

[Verse 2]
G|--------------------|----------------------|--------------------|----------------------|
D|o-------------------|--5--5--5--4--4--2----|--------------------|--5--5--5--4--4--2----|
A|o-------------------|----------------------|--------------------|----------------------|
E|--0-----0--0-----0--|----------------------|--0-----0--0-----0--|----------------------|
                                                                                     x2
G|-------------------|--------------------|--------------------|---------------------|
D|-------------------|--------------------|--------------------|--------------------o|
A|--3----3--3-----3--|---3----3--3-----3--|---2----2--2-----2--|---7----7--7-----7--o|
E|-------------------|--------------------|--------------------|---------------------|

[Chorus 2]
G|------------------|-----------------|-----------------|------------------|-----------------|
D|------------------|-----------------|------------2--4-|-4---4----4-4-4-4-|-----------------|
A|------------------|-----------------|-----------------|------------------|-3---3-3-3---3-3-|
E|--3---3-3-3---3-3-|-3--3----3-3-3-3-|-2---2-2-2-------|------------------|-----------------|

G|------------------|-----------------|-------------------|
D|------------------|-----------------|-------------------|
A|--3--3----3-3-3-3-|-3---3-3-3---3-3-|--3--3----3-3-3-3--|
E|------------------|-----------------|-------------------|

G|------------------|-----------------|-----------------|------------------|-----------------|
D|------------------|-----------------|------------2--4-|-4---4----4-4-4-4-|-----------------|
A|------------------|-----------------|-----------------|------------------|-3---3-3-3---3-3-|
E|--3---3-3-3---3-3-|-3--3----3-3-3-3-|-2---2-2-2-------|------------------|-----------------|

G|------------------|-----------------|-------------------|
D|------------------|-----------------|-------------------|
A|--3--3----3-3-3-3-|-2---2-2-2---2-2-|--7--7----7-7-7-7--|
E|------------------|-----------------|-------------------|

[Acoustic / Bridge 2] - No Bass

[Chorus 3]
G|------------------|-----------------|-----------------|------------------|-----------------|
D|------------------|-----------------|------------2--4-|-4---4----4-4-4-4-|-----------------|
A|------------------|-----------------|-----------------|------------------|-3---3-3-3---3-3-|
E|--3---3-3-3---3-3-|-3--3----3-3-3-3-|-2---2-2-2-------|------------------|-----------------|

G|------------------|-----------------|-------------------|
D|------------------|-----------------|-------------------|
A|--3--3----3-3-3-3-|-3---3-3-3---3-3-|--3--3----3-3-3-3--|
E|------------------|-----------------|-------------------|

G|------------------|-----------------|-----------------|------------------|-----------------|
D|------------------|-----------------|------------2--4-|-4---4----4-4-4-4-|-----------------|
A|------------------|-----------------|-----------------|------------------|-3---3-3-3---3-3-|
E|--3---3-3-3---3-3-|-3--3----3-3-3-3-|-2---2-2-2-------|------------------|-----------------|

G|------------------|-----------------|-------------------|
D|------------------|-----------------|-------------------|
A|--3--3----3-3-3-3-|-2---2-2-2---2-2-|--7--7----7-7-7-7--|
E|------------------|-----------------|-------------------|

[Bridge 3] - No Bass

[Outro]  x24
G|--------------------|
D|o-------------------|
A|o------------0-5-7--|
E|---0---3-3-3--------|


4. ROCK IS DEAD


[Intro / Verse]                                                            x4
G|------------------|-----------------|-----------------|----------------|
D|o-----------------|-----------------|-----------------|---------------o|
A|o-----------------|-----------------|-----------------|-----/9--7-----o|
E|--2-X-2-X-2-X-2-X-|-2-X-2-X-2-X-5-X-|-2-X-2-X-2-X-2-X-|-2-X--------9---|

[Pre-Chorus]                                x2
G|------------------|---------------------|
D|o--7--------------|----------10--10\---o|
A|o--------------X--|--0-----------------o|
E|------------------|---------------------|

[Chorus]
G|------------------|-----------------|-----------------|-----------------|-----------------|
D|------------------|-----------------|-----------------|-----------------|-----------------|
A|---9----7--9--7---|--9----7--9--7---|--7----5--7--5---|--7----5--7--5---|--5----5--4--5---|
E|------------------|-----------------|-----------------|-----------------|-----------------|

G|------------------|----------------------|---------------------------|
D|------------------|----------------------|---------------------------|
A|---5----5--4--5---|-4--4-4--4-4--4-4--4--|-12-12-11-11------11-------|
E|------------------|----------------------|-------------12-12-----12--|

[Break]
G|--------------|--------------|--------------|--------------|
D|--------------|--------------|--------------|--------------|
A|--------------|--------------|--------------|--------------|
E|-2------------|-(2)----------|-(2)----------|-(2)----------|

[Main Riff]                                                               x2
G|------------------|-----------------|-----------------|----------------|
D|o-----------------|-----------------|-----------------|---------------o|
A|o-----------------|-----------------|-----------------|-----/9--7-----o|
E|--2-X-2-X-2-X-2-X-|-2-X-2-X-2-X-5-X-|-2-X-2-X-2-X-2-X-|-2-X--------9---|

[Break 2] - No Bass

[Verse 2]                                                                  x2
G|------------------|-----------------|-----------------|----------------|
D|o-----------------|-----------------|-----------------|---------------o|
A|o-----------------|-----------------|-----------------|-----/9--7-----o|
E|--2-X-2-X-2-X-2-X-|-2-X-2-X-2-X-5-X-|-2-X-2-X-2-X-2-X-|-2-X--------9---|

[Pre-Chorus]                                x2
G|------------------|---------------------|
D|o--7--------------|----------10--10\---o|
A|o--------------X--|--0-----------------o|
E|------------------|---------------------|

[Chorus 2]
G|------------------|-----------------|-----------------|-----------------|-----------------|
D|------------------|-----------------|-----------------|-----------------|-----------------|
A|---9----7--9--7---|--9----7--9--7---|--7----5--7--5---|--7----5--7--5---|--5----5--4--5---|
E|------------------|-----------------|-----------------|-----------------|-----------------|

G|------------------|----------------------|---------------------------|
D|------------------|----------------------|---------------------------|
A|---5----5--4--5---|-4--4-4--4-4--4-4--4--|-12-12-11-11------11-------|
E|------------------|----------------------|-------------12-12-----12--|

[Break 3]
G|--------------|--------------|--------------|--------------|
D|--------------|--------------|--------------|--------------|
A|--------------|--------------|--------------|--------------|
E|-2------------|-(2)----------|-(2)----------|-(2)----------|

[Bridge] (2 Measures of No Bass, then)                                     x3
G|------------------|-----------------|-----------------|----------------|
D|o-----------------|-----------------|-----------------|---------------o|
A|o-----------------|-----------------|-----------------|-----/9--7-----o|
E|--2-X-2-X-2-X-2-X-|-2-X-2-X-2-X-5-X-|-2-X-2-X-2-X-2-X-|-2-X--------9---|

[Pre-Chorus]                                x2
G|------------------|---------------------|
D|o--7--------------|----------10--10\---o|
A|o--------------X--|--0-----------------o|
E|------------------|---------------------|

[Chorus 3]
G|-------------------|-----------------|-----------------|-----------------|-----------------|
D|o------------------|-----------------|-----------------|-----------------|-----------------|
A|o---9----7--9--7---|--9----7--9--7---|--7----5--7--5---|--7----5--7--5---|--5----5--4--5---|
E|-------------------|-----------------|-----------------|-----------------|-----------------|
                                                                        x2
G|------------------|----------------------|----------------------------|
D|------------------|----------------------|---------------------------o|
A|---5----5--4--5---|-4--4-4--4-4--4-4--4--|-12-12-11-11------11-------o|
E|------------------|----------------------|-------------12-12-----12---|

5. DISASSOCIATIVE


[Intro] (Guitar) - No Bass

[Intro] (Bass and Drums) / Verse                                                    x4
G|---------------------|-------------------|-------------------|------------------|
D|o--------------------|-------------------|-------------------|-----------------o|
A|o--------------------|-------------------|-------------------|-----------------o|
E|---1--1--------1---1-|-5--5--------5---5-|-7--7--------8---8-|-5--5-------------|

[Pre-Chorus]                                                                        x2
G|--------------------|-------------------|-------------------|---------------------|
D|o-------------------|-------------------|-------------------|--------------------o|
A|o-------------------|-------------------|-------------------|--------------------o|
E|---7---7-7---7-7-7--|--5---5-5---5-5-5--|--3---3-3---3-3-3--|--3---3-3---3-3-3----|

[Chorus]
G|------------------|-----------------|-----------------|-----------------|
D|------------------|-----------------|-----------------|-----------------|
A|------------------|-----------------|-----------------|-----------------|
E|--1-1-1-1-1-1-1-1-|-5-5-5-5-5-5-5-5-|-8-8-8-8-8-8-8-8-|-5-5-5-5-5-5-5-5-|

G|------------------|-----------------|-----------------|--------------------|--------------------|
D|------------------|-----------------|-----------------|-7-7-7-9-9-10-10-10-|-7-7-7-9-9-10-10-10-|
A|------------------|-----------------|-----------------|--------------------|--------------------|
E|--1-1-1-1-1-1-1-1-|-5-5-5-5-5-5-5-5-|-8-8-8-8-8-8-8-8-|--------------------|--------------------|

[Verse 2]                                                                           x3
G|---------------------|-------------------|-------------------|------------------|
D|o--------------------|-------------------|-------------------|-----------------o|
A|o--------------------|-------------------|-------------------|-----------------o|
E|---1--1--------1---1-|-5--5--------5---5-|-7--7--------8---8-|-5--5-------------|

[Chorus 2]
G|------------------|-----------------|-----------------|-----------------|
D|------------------|-----------------|-----------------|-----------------|
A|------------------|-----------------|-----------------|-----------------|
E|--1-1-1-1-1-1-1-1-|-5-5-5-5-5-5-5-5-|-8-8-8-8-8-8-8-8-|-5-5-5-5-5-5-5-5-|

G|------------------|-----------------|-----------------|--------------------|--------------------|
D|------------------|-----------------|-----------------|-7-7-7-9-9-10-10-10-|-7-7-7-9-9-10-10-10-|
A|------------------|-----------------|-----------------|--------------------|--------------------|
E|--1-1-1-1-1-1-1-1-|-5-5-5-5-5-5-5-5-|-8-8-8-8-8-8-8-8-|--------------------|--------------------|

[Bridge]                                                          x2
G|----------------|--------------|--------------|---------------|
D|o---------------|--------------|--------------|--------------o|
A|o---------------|--7--7-7---7--|--------------|--------------o|
E|---7--7-9---10--|--------------|--5--5-7---8--|--2--2-2---2---|

[Chorus] (Interlude)                                                          x2
G|-------------------|-----------------|-----------------|------------------|
D|o------------------|-----------------|-----------------|-----------------o|
A|o------------------|-----------------|-----------------|-----------------o|
E|---1-1-1-1-1-1-1-1-|-5-5-5-5-5-5-5-5-|-8-8-8-8-8-8-8-8-|-5-5-5-5-5-5-5-5--|

[Chorus 3]
G|------------------|-----------------|-----------------|-----------------|
D|------------------|-----------------|-----------------|-----------------|
A|------------------|-----------------|-----------------|-----------------|
E|--1-1-1-1-1-1-1-1-|-5-5-5-5-5-5-5-5-|-8-8-8-8-8-8-8-8-|-5-5-5-5-5-5-5-5-|

G|------------------|-----------------|-----------------|--------------------|--------------------|
D|------------------|-----------------|-----------------|-7-7-7-9-9-10-10-10-|-7-7-7-9-9-10-10-10-|
A|------------------|-----------------|-----------------|--------------------|--------------------|
E|--1-1-1-1-1-1-1-1-|-5-5-5-5-5-5-5-5-|-8-8-8-8-8-8-8-8-|--------------------|--------------------|

[Finish] (Ring Out)
G|------------------|
D|------------------|
A|-7----------------|
E|------------------|


6. THE SPEED OF PAIN


[Intro] - No Bass

[Verse 1] - No Bass

[Pre-Chorus]
G|------------|--------------------------------|------------|---------------------------------|
D|------------|--------------------------------|------------|---------------------------------|
A|------------|--------7--------------5-7-7-7--|------------|---------7--------------5-7-7-7--|
E|--5------5--\-0-X-0------X-0---0---0---------|--5------5--\-0-X-0------X-0---0---0----------|

G|------------|----------|----------|-----------------------|
D|------------|----------|----------|-----------------------|
A|------------|----------|----------|-----------------------|
E|--5------5--/-8-----8--\-5-----5--\-3---3--3-3--2--2-2-1--|

[Chorus] (First Bar, Nothing for rest.)
G|--------------|
D|--------------|
A|--------------|
E|-0------------|

[Pre-Chorus 2]
G|------------|---------------------------------|------------|---------------------------------|
D|------------|---------------------------------|------------|---------------------------------|
A|------------|---------7--------------5-7-7-7--|------------|---------7--------------5-7-7-7--|
E|--5------5--\-0-X-0------X-0---0---0----------|--5------5--\-0-X-0------X-0---0---0----------|

G|------------|----------|----------|----------------------|
D|------------|----------|----------|----------------------|
A|------------|----------|----------|----------------------|
E|--5-X---5-5-/8--X-8--8-\5--X--5-5-\3----2-X------1-X-----|

[Chorus 2]                                                         x4
G|-------------------------------|--------------------------------|
D|o------------------------------|-------------------------------o|
A|o----------------------5-7-7-7-|-----------------------5-7-7-7-o|
E|---0-X-0----X-0---0---0--------|--8-X-8----X-8---8---8----------|

[Bridge]
G|--------------|--------------|--------------|--------------|--------------|------------------|
D|--5--------5--/--13------13--|--------------|--------------|--5--------5--/--13----13-11-----|
A|--------------|--------------|--3--------3--/--5--------5--|--------------|--------------13--|
E|--------------|--------------|--------------|--------------|--------------|------------------|

G|--------------|--------------|--------------|--------------|--------------|------------------|
D|--------------|--------------|--------------|--------------|--------------|------------------|
A|--3--------3--/--5--------5\-|--------------|--------------|--------------|------------------|
E|--------------|--------------|--4--------4--\--2--------2--|--1--------1--/--15----------13--|

G|--------------|--------------|--------------|--------------|--------------|------------------|
D|--------------|--------------|--------------|--------------|--5--------5--/--13----13-11-----|
A|--------------|--------------|--------------|--------------|--------------|--------------13--|
E|--4--------4--|--2--------2--|--1--------1--/--15------13--|--------------|------------------|

G|--------------|--------------|--------------|--------------|--------------|------------------|
D|--------------|--------------|--5--------5--/--13------13--|--------------|------------------|
A|--3--------3--/--5--------5\-|--------------|--------------|--3--------3--/--5------------5\-|
E|--------------|--------------|--------------|--------------|--------------|------------------|

G|--------------|--------------|--------------|--------------|--------------|------------------|
D|--------------|--------------|--------------|--------------|--------------|------------------|
A|--------------|--------------|--------------|--------------|--------------|------------------|
E|--4--------4--/--2--------2--|--1--------1--/--15------13--\--4--------4--/--2------------2--|

G|--------------|--------------|
D|--------------|--------------|
A|--------------|--------------|
E|--1--------1--/--15------13--|

[Outro - No Bass]


7. POSTHUMAN


[Intro/Verse]                             x12
G|------------------|--------------------|
D|o-----------------|---0-0-0-0---------o|
A|o-0-2-2-2-3-2-0-2-|-2---------0-0-0-0-o|
E|------------------|--------------------|

[Chorus]
G|----------|----------|----------|----------|----------|----------|----------|----------|
D|-0--------|----------|----------|----------|-0--------|----------|----------|----------|
A|----------|-3--------|-2-2----2-|-2-2----2-|----------|-3--------|-2-2----2-|-2-2----2-|
E|----------|----------|----------|----------|----------|----------|----------|----------|
                                            x4
G|----------|----------|----------|----------|
D|----------|----------|o---------|---------o|
A|-2-2----2-|-2-2----2-|o---------|---------o|
E|----------|----------|--0-------|--3-------|

[Interlude]                               x4
G|------------------|--------------------|
D|o-----------------|---0-0-0-0---------o|
A|o-0-2-2-2-3-2-0-2-|-2---------0-0-0-0-o|
E|------------------|--------------------|

[Interlude 2] - No Bass

[Verse 2]                                 x8
G|------------------|--------------------|
D|o-----------------|---0-0-0-0---------o|
A|o-0-2-2-2-3-2-0-2-|-2---------0-0-0-0-o|
E|------------------|--------------------|

[Chorus 2]                                       x4
G|-----------|----------|----------|-----------|
D|o-0--------|----------|----------|----------o|
A|o----------|-3--------|-2-2----2-|-2-2----2-o|
E|-----------|----------|----------|-----------|
                       x8
G|----------|----------|
D|o---------|---------o|
A|o---------|---------o|
E|--0-------|--3-------|

[Bridge] - No Bass

[Chorus 3]                                      x4
G|-----------|----------|----------|-----------|
D|o-0--------|----------|----------|----------o|
A|o----------|-3--------|-2-2----2-|-2-2----2-o|
E|-----------|----------|----------|-----------|

[Outro]                                    x4
G|------------------|--------------------|
D|o-----------------|---0-0-0-0---------o|
A|o-0-2-2-2-3-2-0-2-|-2---------0-0-0-0-o|
E|------------------|--------------------|

8. I WANT TO DISAPPEAR

[Intro - No Bass]

[Verse]                           x4
G|---|---|---|---|-----------------|---|-----------------|-----------------|-----------------|
D|---|---|---|o--|----------------o|---|-7-7-7-7-7-7-7-7-|-7-7-7-7-7-7-7-7-|-4-4-4-4-4-4-4-4-|
A|---|---|---|o--|-6--9-6-9-6-9-8-o|---|-----------------|-----------------|-----------------|
E|---|---|---|---|-----------------|---|-----------------|-----------------|-----------------|

G|-------------------|
D|-4-4-4-4-4-4-4-4-4-|
A|-------------------|
E|-------------------|

[Chorus]                           x4
G|---------------|---------------|
D|o--------------|--------------o|
A|o-6--6-6-4-6-6-|-9-9-9--6-4-6-o|
E|---------------|---------------|

G|-----------------|-----------------|-----------------|-----------------|-----------------|
D|-----------------|-----------------|-----------------|-----------------|-----------------|
A|-7-7-7-7-7-7-7-7-|---4-4-4-4-4-4---|-6-6-6-6-6-6-6-6-|---2-2-2-2-2-2-2-|-4-4-4-4-4-4-4-4-|
E|-----------------|-----------------|-----------------|-----------------|-----------------|
                                                      x4
G|-----------------|------------------|----------------|
D|-----------------|o-----------------|---------------o|
A|-4-4-4-4-4-4---6-|o------0-2--------|------0-2---5--o|
E|-----------------|--0-0------3/7----|--0-0-----------|

[Verse 2]                            x4
G|---|---|---|---|-----------------|---|-----------------|-----------------|-----------------|
D|---|---|---|o--|----------------o|---|-7-7-7-7-7-7-7-7-|-7-7-7-7-7-7-7-7-|-4-4-4-4-4-4-4-4-|
A|---|---|---|o--|-6--9-6-9-6-9-8-o|---|-----------------|-----------------|-----------------|
E|---|---|---|---|-----------------|---|-----------------|-----------------|-----------------|

G|-------------------|
D|-4-4-4-4-4-4-4-4-4-|
A|-------------------|
E|-------------------|

[Chorus 2]                         x4
G|---------------|---------------|
D|o--------------|--------------o|
A|o-6--6-6-4-6-6-|-9-9-9--6-4-6-o|
E|---------------|---------------|

G|-----------------|-----------------|-----------------|-----------------|-----------------|
D|-----------------|-----------------|-----------------|-----------------|-----------------|
A|-7-7-7-7-7-7-7-7-|---4-4-4-4-4-4---|-6-6-6-6-6-6-6-6-|---2-2-2-2-2-2-2-|-4-4-4-4-4-4-4-4-|
E|-----------------|-----------------|-----------------|-----------------|-----------------|
                                                      x4
G|-----------------|------------------|----------------|
D|-----------------|o-----------------|---------------o|
A|-4-4-4-4-4-4---6-|o------0-2--------|------0-2---5--o|
E|-----------------|--0-0------3/7----|--0-0-----------|

[Solo]                                                                    x2
G|------------------|-----------------|-----------------|------------------|
D|o-7-7-7-7-7-7-7-7-|-7-7-7-7-7-7-7-7-|-4-4-4-4-4-4-4-4-|-4-4-4-4-4-4-4-4-o|
A|o-----------------|-----------------|-----------------|-----------------o|
E|------------------|-----------------|-----------------|------------------|

[Chorus 3 / Outro]              x4
G|---------------|---------------|
D|o--------------|--------------o|
A|o-6--6-6-4-6-6-|-9-9-9--6-4-6-o|
E|---------------|---------------|

G|-----------------|-----------------|-----------------|-----------------|-----------------|
D|-----------------|-----------------|-----------------|-----------------|-----------------|
A|-7-7-7-7-7-7-7-7-|---4-4-4-4-4-4---|-6-6-6-6-6-6-6-6-|---2-2-2-2-2-2-2-|-4-4-4-4-4-4-4-4-|
E|-----------------|-----------------|-----------------|-----------------|-----------------|

G|-----------------|
D|-----------------|
A|-4-4-4-4-4-4---6-|
E|-----------------|


9. I DON'T LIKE THE DRUGS (BUT THE DRUGS LIKE ME)


[Intro]
G|-----------------|-----------------|-----------------|-----------------|
D|-----------------|-----------------|-----------------|-----------------|
A|-----------------|-----------------|-----------------|--0--0-----------|
E|--2--2-----------|-----------------|--2--2-----------|-----------------|

[Verse 1]                                                                  x3
G|------------------|-----------------|-----------------|------------------|
D|o-----------------|-----------------|-----------------|-----------------o|
A|o-----------------|-----------------|-----------------|-----------------o|
E|--2-0-2---2-X-0-2-|--2-0-2----5--7--|-2-0-2---2-X-0-2-|--2-0-2----7--5---|

[Pre-Chorus]                                                              x2
G|-----------------|-----------------|-----------------|-----------------|
D|o----------------|-----------------|-----------------|----------------o|
A|o-4---4-/-7------|--4---4-/-7------|--4---4-/-7------|--4---4---------o|
E|-----------------|-----------------|-----------------|----------0---1--|

[Chorus]
G|---------------------------|-----------------|---------------------------|-----------------|
D|---------------------------|-----------------|---------------------------|-----------------|
A|---------------------------|---0--------0--2-|---------------------------|---0--------2--0-|
E|-2--2--X-X-2--2--X-X-2--2--|-2---0--X-X------|-2--2--X-X-2--2--X-X-2--2--|-2---0--X-X------|

G|---------------------------|-----------------|-----------------|-----------------|
D|---------------------------|-----------------|-----------------|-----------------|
A|---------------------------|---0--------0--2-|-----------------|--0--0-----------|
E|-2--2--X-X-2--2--X-X-2--2--|-2---0--X-X------|--2--2-----------|-----------------|

[Verse 2]                                                                  x4
G|------------------|-----------------|-----------------|------------------|
D|o-----------------|-----------------|-----------------|-----------------o|
A|o-----------------|-----------------|-----------------|-----------------o|
E|--2-0-2---2-X-0-2-|--2-0-2----5--7--|-2-0-2---2-X-0-2-|--2-0-2----7--5---|

[Pre-Chorus 2]                                                            x2
G|-----------------|-----------------|-----------------|-----------------|
D|o----------------|-----------------|-----------------|----------------o|
A|o-4---4-/-7------|--4---4-/-7------|--4---4-/-7------|--4---4---------o|
E|-----------------|-----------------|-----------------|----------0---1--|

[Chorus 2]
G|---------------------------|-----------------|---------------------------|-----------------|
D|---------------------------|-----------------|---------------------------|-----------------|
A|---------------------------|---0--------0--2-|---------------------------|---0--------2--0-|
E|-2--2--X-X-2--2--X-X-2--2--|-2---0--X-X------|-2--2--X-X-2--2--X-X-2--2--|-2---0--X-X------|

G|---------------------------|-----------------|-----------------|-----------------|
D|---------------------------|-----------------|-----------------|-----------------|
A|---------------------------|---0--------0--2-|-----------------|--0--0-----------|
E|-2--2--X-X-2--2--X-X-2--2--|-2---0--X-X------|--2--2-----------|-----------------|

[Bridge]
G|-----------------|-----------------|-----------------|-----------------|
D|-----------------|-----------------|-----------------|-----------------|
A|--4------2-------|--1-------1------|--4------2-------|-----------------|
E|-----------------|-----------------|-----------------|--2--------------|

G|-----------------|-----------------|-----------------|-----------------|
D|-----------------|-----------------|-----------------|-----------------|
A|--4------2-------|--1-------1--2---|--4------2-------|-----------------|
E|-----------------|-----------------|-----------------|--2--------------|

G|-----------------|-----------------|-----------------|-----------------|
D|-----------------|-----------------|-----------------|-----------------|
A|--3------1-------|--1--3--1--------|--3------1-------|-----------------|
E|-----------------|-----------------|-----------------|--5--------------|

G|-----------------|-----------------|-----------------|-----------------|
D|-----------------|-----------------|-----------------|-----------------|
A|--3------1-------|--1--3--1--------|--3------1-------|-----------------|
E|-----------------|-----------------|-----------------|--5--------------|

[Outro]
G|-----------------|-----------------|-----------------|-----------------|
D|-----------------|-----------------|-----------------|-----------------|
A|-----------------|-----------------|-----------------|--0--0-----------|
E|--2--2-----------|-----------------|--2--2-----------|-----------------|

G|-----------------|-----------------|-----------------|-----------------|
D|-----------------|-----------------|-----------------|-----------------|
A|-----------------|-----------------|-----------------|-0---------------|
E|--2--------------|-----------------|-2---------------|-----------------|
                                                                          x4
G|------------------|-----------------|-----------------|------------------|
D|o-----------------|-----------------|-----------------|-----------------o|
A|o-----------------|---0-------------|-----------------|----0----0---2---o|
E|---2--2-----2--2--|-2---0-----------|--2--2------2--2-|--2---0-----------|

G|-----------------|
D|-----------------|
A|-----------------|
E|--2--2-----------|


10. NEW MODEL N0. 15


[Intro]              x8
G|-------------------|
D|o-2-2-2-2-2-2-2-2-o|
A|o-----------------o|
E|-------------------|

[Pre-Verse]
G|-----------------|-----------------|-----------------|-----------------|
D|----4------------|----4------------|----------4------|-----------------|
A|-----------------|-----------------|-----------------|---------0-0-0-0-|
E|--2---2-2---2-0--|--2---2-2---2-0--|--2---2-2---2-0--|-2-2-2-2---------|

[Verse - No Bass]

[Chorus]                                                                     x3
G|------------------|-----------------|-----------------|------------------|
D|o----4------------|----4------------|----------4------|-----------------o|
A|o-----------------|-----------------|-----------------|---------0-0-0-0-o|
E|---2---2-2---2-0--|--2---2-2---2-0--|--2---2-2---2-0--|-2-2-2-2----------|

[Verse 2] - No Bass

[Chorus 2]                                                                 x4
G|------------------|-----------------|-----------------|------------------|
D|o----4------------|----4------------|----------4------|-----------------o|
A|o-----------------|-----------------|-----------------|---------0-0-0-0-o|
E|---2---2-2---2-0--|--2---2-2---2-0--|--2---2-2---2-0--|-2-2-2-2----------|

[Bridge]                                                                                   
              x2
G|--------------------|-------------------|-------------------|-------------------|--------------------|
D|o-------------------|-------------------|-------------------|-------------------|-------------------o|
A|o-2--2--2--2---2--2-|-0--0--0--0---0--0-|-2--2--2--2---2--2-|-------------------|-0--0--0--0---0--0-o|
E|--------------------|-------------------|-------------------|-3--3--3--3---3--3-|--------------------|

[Solo]                  x4                    x4
G|----------------------|----------------------|
D|o--------------------o|o--------------------o|
A|o--------------------o|o--------------------o|
E|---2--2---------------|----------------------|

[Bridge 2]              x8
G|----------------------|
D|o--------------------o|
A|o--------------------o|
E|---2--2---------------|

[Chorus 3]              x4                                                               
        x3
G|----------------------|------------------|-----------------|-----------------|------------------|
D|o--------------------o|o----4------------|----4------------|----------4------|-----------------o|
A|o--------------------o|o-----------------|-----------------|-----------------|---------0-0-0-0-o|
E|----------------------|---2---2-2---2-0--|--2---2-2---2-0--|--2---2-2---2-0--|-2-2-2-2----------|
                                                                                         
        x2
G|----------------------|------------------|-----------------|-----------------|------------------|
D|----------------------|o----4------------|----4------------|----------4------|-----------------o|
A|-----0----------0-----|o-----------------|-----------------|-----------------|---------0-0-0-0-o|
E|--2----------2--------|---2---2-2---2-0--|--2---2-2---2-0--|--2---2-2---2-0--|-2-2-2-2----------|

[Finish]
G|----------------------|
D|----------------------|
A|----------------------|
E|--2--2----------------|


11. USER FRIENDLY


[Intro/Verse]                                                              x8
G|------------------|-----------------|-----------------|------------------|
D|o-----2-2-0-0-----|-4-4-4-4-0-0-2-2-|-----2-2-0-0-----|-----------------o|
A|o-0-0---------2-2-|-----------------|-0-0---------1-1-|-0-0-0-0---------o|
E|------------------|-----------------|-----------------|---------3-3-0-0--|

[Pre-Chorus]                                                                    x3
G|-------------------|------------------|------------------|-------------------|
D|o------------------|------------------|------------------|------------------o|
A|o------------------|------------------|--5---5--5--------|------------------o|
E|---7-----7------5--|--5---7---7---5---|------------7-----|-(7)---------------|

G|-------------------|------------------|------------------|------------------|
D|-------------------|------------------|------------------|------------------|
A|-------------------|------------------|--5---------------|------------------|
E|---7-----7------5--|--5---7---7---5---|--------7-----5---|---3-------0------|

[Chorus]                                       x4
G|----------|---------|---------|-------------|
D|o---------|---------|---------|------------o|
A|o---------|---------|---------|------------o|
E|--7-7-7-7-|-7-7-7-7-|-9-9-9-9-|-10-10-12-12-|

[Post-Chorus]
G|-----------------|-------------------|
D|-----------------|-------------------|
A|--7--7--7--------|--9--9---9---9\----|
E|------------8----|-------------------|

[Verse 2]                                                                  x4
G|------------------|-----------------|-----------------|------------------|
D|o-----2-2-0-0-----|-4-4-4-4-0-0-2-2-|-----2-2-0-0-----|-----------------o|
A|o-0-0---------2-2-|-----------------|-0-0---------1-1-|-0-0-0-0---------o|
E|------------------|-----------------|-----------------|---------3-3-0-0--|

[Pre-Chorus 2]                                                                  x3
G|-------------------|------------------|------------------|-------------------|
D|o------------------|------------------|------------------|------------------o|
A|o------------------|------------------|--5---5--5--------|------------------o|
E|---7-----7------5--|--5---7---7---5---|------------7-----|-(7)---------------|

G|-------------------|------------------|------------------|------------------|
D|-------------------|------------------|------------------|------------------|
A|-------------------|------------------|--5---------------|------------------|
E|---7-----7------5--|--5---7---7---5---|--------7-----5---|---3-------0------|

[Chorus 2]                                     x4
G|----------|---------|---------|-------------|
D|o---------|---------|---------|------------o|
A|o---------|---------|---------|------------o|
E|--7-7-7-7-|-7-7-7-7-|-9-9-9-9-|-10-10-12-12-|

[Post-Chorus 2]
G|-----------------|-------------------|
D|-----------------|-------------------|
A|--7--7--7--------|--9--9---9---9\----|
E|------------8----|-------------------|

[Bridge]                                                                    x8
G|------------------|-----------------|-----------------|------------------|
D|o-----2-2-0-0-----|-4-4-4-4-0-0-2-2-|-----2-2-0-0-----|-----------------o|
A|o-0-0---------2-2-|-----------------|-0-0---------1-1-|-0-0-0-0---------o|
E|------------------|-----------------|-----------------|---------3-3-0-0--|

[Chorus 3]                                     x8
G|----------|---------|---------|-------------|
D|o---------|---------|---------|------------o|
A|o---------|---------|---------|------------o|
E|--7-7-7-7-|-7-7-7-7-|-9-9-9-9-|-10-10-12-12-|

12. FUNDAMENTALLY LOATHSOME


[Verse]                                              x2
G|------------------------|-------------------------|
D|o-----------------------|------------------------o|
A|o-----------------------|------------------------o|
E|--5----5----5----5----4-|-3----3----3----0--3--4--|

G|------------------------|------------------------|------------------------|
D|------------------------|------------------------|------------------------|
A|------------------------|------------------------|------------------------|
E|--3--3------3--3----3---|--2---2---2---1---1---1-|--0---0---0---12---0----|

[Chorus]                                                                     x2
G|------------------|-----------------|----------------|--------------------|
D|o-----------------|-----------------|----------------|-------------------o|
A|o-----------------|-----9-----------|-----5----------|--------5--5\------o|
E|---3---3----3--3--|-7-------7----7--|-3-------2---2--|-0--0----------3----|

[Verse 2]                                             x2
G|------------------------|-------------------------|
D|o-----------------------|------------------------o|
A|o-----------------------|------------------------o|
E|--5----5----5----5----4-|-3----3----3----0--3--4--|

[Chorus 2]                                                                   x2
G|------------------|-----------------|----------------|--------------------|
D|o-----------------|-----------------|----------------|-------------------o|
A|o-----------------|-----9-----------|-----5----------|--------5--5\------o|
E|---3---3----3--3--|-7-------7----7--|-3-------2---2--|-0--0----------3----|

[Solo / Bridge]                                    x3
G|------------------------|-------------------------|-------------------------|
D|o-----------------------|------------------------o|-------------------------|
A|o-----------------------|------------------------o|-------------------------|
E|--5----5----5----5----4-|-3----3----3----0--3--4--|--2----2--2----1----1--1-|
                                                          x3
G|---------------------------|-----------------------------|----------------------------|
D|---------------------------|o---------------------------o|----------------------------|
A|---------------------------|o-10-----9-----7------2-3-2-o|-10-----9-----7------7-5----|
E|-0-0-0-0-0-0-0-0-0-0-0-0-0-|----0-0---0-0---0-0----------|----0-0---0-0---0-0------7--|

G|-------------------------|-------------------------|
D|-------------------------|-------------------1-1-1-|
A|-2-2-2-2-2-2-------------|-3-3-3-3-3-3-2-2-2-------|
E|-------------2-2-2-2-2-2-|-------------------------|

[Outro]                          x11
G|---------------|---------------|
D|o--------------|--------------o|
A|o--------------|--1--1--0-----o|
E|---0--0--3--3--|-----------3---|

13. THE LAST DAY ON EARTH

No Bass

14. COMA WHITE

[Intro - No Bass]

[Verse]                                   x5
G|----------|--------|---------|-----------|
D|o---------|--------|---------|----------o|
A|o---------|--------|---------|----------o|
E|--5-------|-8------|-3-------|--1---3----|

[Chorus]                                                                  x2
G|------------------|-----------------|-----------------|------------------|
D|o-----------------|-----------------|-----------------|-----------------o|
A|o-----------------|-----------------|-----------------|-----------------o|
E|--5-5-5-5-5-5-5-5-|-8-8-8-8-8-8-8-8-|-3-3-3-3-3-3-3-3-|-3-1-1-1-1-1-1-1--|

[Bridge]
G|--------------|--------------|--------------|---------------|
D|--------------|--------------|--------------|---------------|
A|--------------|--------------|--------------|---------------|
E|-5-5-5-5/8h10-\-4-4-4-4/8h10-\-5-5-5-5/10h8-\-1-1-1-1-1-1-1-|

[Verse 2]                                  x4
G|----------|--------|---------|-----------|
D|o---------|--------|---------|----------o|
A|o---------|--------|---------|----------o|
E|--5-------|-8------|-3-------|--1---3----|

[Chorus 2]                                                                 x2
G|------------------|-----------------|-----------------|------------------|
D|o-----------------|-----------------|-----------------|-----------------o|
A|o-----------------|-----------------|-----------------|-----------------o|
E|--5-5-5-5-5-5-5-5-|-8-8-8-8-8-8-8-8-|-3-3-3-3-3-3-3-3-|-3-1-1-1-1-1-1-1--|

[Bridge 2] - No Bass

[Bridge 3]
G|--------------|--------------|--------------|---------------|
D|--------------|--------------|--------------|---------------|
A|--------------|--------------|--------------|---------------|
E|-5-5-5-5/8h10-\-4-4-4-4/8h10-\-5-5-5-5/10h8-\-1-1-1-1-1-1-1-|

G|------------------|-----------------|-------------------------|------------------|
D|------------------|-----------------|-------------------------|------------------|
A|------------------|-----------------|-------------------------|------------------|
E|--5-5-5-5-5-5-5-5-|-8-8-8-8-8-8-8-8-|-10-10-10-10-10-10-10-10-|-1-1-1-1-1-1-1-1--|

[Chorus 3]                                                                 x4
G|------------------|-----------------|-----------------|------------------|
D|o-----------------|-----------------|-----------------|-----------------o|
A|o-----------------|-----------------|-----------------|-----------------o|
E|--5-5-5-5-5-5-5-5-|-8-8-8-8-8-8-8-8-|-3-3-3-3-3-3-3-3-|-3-1-1-1-1-1-1-1--|


Finish.


************************************

| x   Dead note
| (n) Ghost note
| h   Hammer-on
| p   Pull-off
| /   Slide up
| \   Slide down

************************************
Suggest correction
Creating personal tab
Creating personal tab
You can edit any tab online and save it as your Personal.

You can edit, replace or remove any tab part or add personal notes – all changes will be seen only by you.

Personal tabs can be accessed anytime from any device, even offline.
Learn more »
Give kudos to tab author, rate the tab!
1 2 3 4 5
comments
print report bad tab
guest
You may want to rate the tab now too:
select rating
Wanna post a correction for this tab? Suggest correction