Oops, an error
Loading. Please wait.

Minute Of Decay tab

version 2
version 2

Whole song

Interactive

4,556 views 3 this week
no commentswrite comment
1 2 3 4 5
2 more votes to show rating
add to favorites
×
Save as Personal and add changes to this tab that will be seen only by you. Learn more ›
×
You can save this tab as Personal to edit and correct it or add notes. All changes will be seen only by you. Learn more »
launch autoscroll
font size
0
reset
how to read this tab
guitar tuner
edit
Autoscroll
slow
fast
+/-
esc
set tempo
stop
Author
Band: Marilyn Manson
Song: Minute of Decay
Album: Antichrist Superstar

This is a pretty easy song to play. I noticed the other tabs wern't all that great, so 
what I believe is the correct way to play it, and it includes all the little guitar parts 
the verses and choruses.

The guitar comes in after the the bass, with some feedback.

At 26 seconds this intro is played until 48 seconds. This parts played 4 times.

e-------------------------------------------------------------------|
b-10-10--10---xxx--13-13-13--13-x-12-13-12--6-----------------------|
g--9--9---9---xxx--12-12-12--12-x-11-12-11--5-----------------------|
d--7--7---7---xxx--10-10-10--10-x--9-10--9--3-----------------------|
a-------------------------------------------------------------------|
e-------------------------------------------------------------------|

More feedback between 48 seconds and 1 minute and 9 seconds.

At 1 minute and 9 seconds:

e--------------------------------------------------------------|
b--------------------------------------------------------------|
g--14-14-14--17-17-17--16-17-16--10-10/12r---------------------|Played 4 times
d--------------------------------------------------------------|
a--------------------------------------------------------------|
e--------------------------------------------------------------|

Chorus at 1 minute and 30 seconds:

e---------------------------------------------------------------------------|
b---------------------------------------------------------------------------|
g---------------------------------------------------------------------------|
d--5-5-5-5-5-5-5-5/7-7-5-5-5-5-5-5-7------5-5-5-5-5-5-5-5/7-7-7-7-7-7-7-7-5-|
a--5-5-5-5-5-5-5-5/7-7--------------------5-5-5-5-5-5-5-5/7-7---------------|
e--3-3-3-3-3-3-3-3/5-5--------------------3-3-3-3-3-3-3-3/5-5---------------|

e---------------------------------------------------------------|
b---------------------------------------------------------------|
g---------------------------------------------------------------|
d--5-5-5-5-5-5-5-5/3-3-5-5-5-5-5-5-3---- End at 1 minute and 50-| seconds
a--5-5-5-5-5-5-5-5/3-3------------------------------------------|
e--3-3-3-3-3-3-3-3/1-1------------------------------------------|

At 2 minutes and 13 seconds play:

e--------------------------------------------------------------|
b--------------------------------------------------------------|
g--14-14-14--17-17-17--16-17-16--10-10/12r---------------------|Played about 5 times
d--------------------------------------------------------------|
a--------------------------------------------------------------|
e--------------------------------------------------------------|

At 2 minutes and 34 seconds play chorus:

e---------------------------------------------------------------------------|
b---------------------------------------------------------------------------|
g---------------------------------------------------------------------------|
d--5-5-5-5-5-5-5-5/7-7-5-5-5-5-5-5-7----5-5-5-5-5-5-5-5/7-7-7-7-7-7-7-7-5---|
a--5-5-5-5-5-5-5-5/7-7------------------5-5-5-5-5-5-5-5/7-7-----------------|
e--3-3-3-3-3-3-3-3/5-5------------------3-3-3-3-3-3-3-3/5-5-----------------|

e-------------------------------------------------|
b-------------------------------------------------|
g-------------------------------------------------|
d--5-5-5-5-5-5-5-5/3-3-5-5-5-5-5-5-3--------------|
a--5-5-5-5-5-5-5-5/3-3----------------------------|
e--3-3-3-3-3-3-3-3/1-1----------------------------|

Bridge at 2 minutes and 55 seconds:

e----------------------------------|
b----------------------------------|
g----------------------------------|
d--3-2-Repeat til 3 minutes and 38-| seconds
a--3-2-----------------------------|
e--1-0-----------------------------|

e---------------------------------------------------------------------------|
b---------------------------------------------------------------------------|
g---------------------------------------------------------------------------|
d--5-5-5-5-5-5-5-5/7-7-5-5-5-5-5-5-7----5-5-5-5-5-5-5-5/7-7-7-7-7-7-7-7-5---|
a--5-5-5-5-5-5-5-5/7-7------------------5-5-5-5-5-5-5-5/7-7-----------------|
e--3-3-3-3-3-3-3-3/5-5------------------3-3-3-3-3-3-3-3/5-5-----------------|

e-------------------------------------------------|
b-------------------------------------------------|
g-------------------------------------------------|
d--5-5-5-5-5-5-5-5/3-3-5-5-5-5-5-5-3--------------|
a--5-5-5-5-5-5-5-5/3-3----------------------------|
e--3-3-3-3-3-3-3-3/1-1----------------------------|

At  4 minutes and play this until the end:
e------------------------------------------------------------------|
b-10-10--10---xxx--13-13-13--13-x-12-13--12--6---------------------|
g--9--9---9---xxx--12-12-12--12-x-11-12--11--5---------------------|
d--7--7---7---xxx--10-10-10--10-x--9-10---9--3---------------------|
a------------------------------------------------------------------|
e------------------------------------------------------------------|

            
            
Suggest correction
Creating personal tab
Creating personal tab
You can edit any tab online and save it as your Personal.

You can edit, replace or remove any tab part or add personal notes – all changes will be seen only by you.

Personal tabs can be accessed anytime from any device, even offline.
Learn more »
Give kudos to tab author, rate the tab!
1 2 3 4 5
comments
print report bad tab
guest
You may want to rate the tab now too:
select rating
Wanna post a correction for this tab? Suggest correction