Oops, an error
Loading. Please wait.

Minute Of Decay bass

version 4
version 4

Whole song

Interactive

55 views 1 this week
no commentswrite comment
1 2 3 4 5
2 more votes to show rating
add to favorites
×
Save as Personal and add changes to this tab that will be seen only by you. Learn more ›
×
You can save this tab as Personal to edit and correct it or add notes. All changes will be seen only by you. Learn more »
launch autoscroll
font size
0
reset
guitar tuner
edit
Autoscroll
slow
fast
+/-
esc
set tempo
stop
About this tab version
My tab from beginning to end. I have video=). Was this info helpful? Yes No
T|----------------|----------------|----------------|----------------|
U|----------------|-Marilyn-Manson-|Minute-Of-Deacay|----------------|
N|----------------|-------Played-with-a-pick--------|----------------|
I|----------------|-*-holding-note-|----------------|----------------|
N|----------------|----------------|----------------|----------------|
G|----------------|----------------|----------------|----------------|

G|----------------|----------------|----------------|----------------|
D|----------------|----------------|----------------|----------------|
A|0---0-0-3-3-3-3-|2-3-2-----------|0---0-0-3-3-3-3-|2-3-2-----------|
E|----------------|------1---1-1-3-|----------------|------1---1-1-3-|

G|----------------|----------------|----------------|----------------|
D|----------------|----------------|----------------|----------------|
A|0---0-0-3-3-3-3-|2-3-2-----------|0---0-0-3-3-3-3-|2-3-2-----------|
E|----------------|------1---1-1-3-|----------------|------1---1-1-3-|

G|----------------|----------------|----------------|----------------|
D|----------------|----------------|----------------|----------------|
A|0---0-0-3-3-3-3-|2-3-2-----------|0---0-0-3-3-3-3-|2-3-2-----------|
E|----------------|------1---1-1-3-|----------------|------1---1-1-3-|

G|----------------|----------------|----------------|----------------|
D|----------------|----------------|----------------|----------------|
A|0---0-0-3-3-3-3-|2-3-2-----------|0---0-0-3-3-3-3-|2-3-2-----------|
E|----------------|------1---1-1-3-|----------------|------1---1-1-3-|

G|----------------|----------------|----------------|----------------|
D|----------------|----------------|----------------|----------------|
A|0---0-0-3-3-3-3-|2-3-2-----------|0---0-0-3-3-3-3-|2-3-2-----------|
E|----------------|------1---1-1-3-|----------------|------1---1-1-3-|

G|----------------|----------------|----------------|----------------|
D|----------------|----------------|----------------|----------------|
A|0---0-0-3-3-3-3-|2-3-2-----------|0---0-0-3-3-3-3-|2-3-2-----------|
E|----------------|------1---1-1-3-|----------------|------1---1-1-3-|

G|----------------|----------------|----------------|----------------|
D|----------------|----------------|----------------|----------------|
A|0---0-0-3-3-3-3-|2-3-2-----------|0---0-0-3-3-3-3-|2-3-2-----------|
E|----------------|------1---1-1-3-|----------------|------1---1-1-3-|

G|----------------|----------------|----------------|----------------|
D|----------------|----------------|----------------|----------------|
A|0---0-0-3-3-3-3-|2-3-2-----------|0---0-0-3-3-3-3-|2-3-2-----------|
E|----------------|------1---1-1-3-|----------------|------1---1-1-3-|

G|----------------|----------------|----------------|----------------|
D|----------------|----------------|----------------|----------------|
A|----------------|----------------|----------------|----------------|
E|3-3-3-3-3-3-3-5-|3-3-3-3-3-3-3-5-|3-3-3-3-3-3-3-5-|3-3-3-3-3-3-3-1-|

G|----------------|----------------|----------------|----------------|
D|----------------|----------------|----------------|----------------|
A|0---0-0-3-3-3-3-|2-3-2-----------|0---0-0-3-3-3-3-|2-3-2-----------|
E|----------------|------1---1-1-3-|----------------|------1---1-1-3-|

G|----------------|----------------|----------------|----------------|
D|----------------|----------------|----------------|----------------|
A|0---0-0-3-3-3-3-|2-3-2-----------|0---0-0-3-3-3-3-|2-3-2-----------|
E|----------------|------1---1-1-3-|----------------|------1---1-1-3-|

G|----------------|----------------|----------------|----------------|
D|----------------|----------------|----------------|----------------|
A|0---0-0-3-3-3-3-|2-3-2-----------|0---0-0-3-3-3-3-|2-3-2-----------|
E|----------------|------1---1-1-3-|----------------|------1---1-1-3-|

G|----------------|----------------|----------------|----------------|
D|----------------|----------------|----------------|----------------|
A|0---0-0-3-3-3-3-|2-3-2-----------|0---0-0-3-3-3-3-|2-3-2-----------|
E|----------------|------1---1-1-3-|----------------|------1---1-1-3-|
  
G|----------------|----------------|----------------|----------------|
D|----------------|----------------|----------------|----------------|
A|----------------|----------------|----------------|----------------|
E|3-3-3-3-3-3-3-5-|*-*-*-*-*-*-*-*-|3-3-3-3-3-3-3-5-|*-*-*-*-*-*-*-*-|

G|----------------|----------------|----------------|----------------|
D|----------------|----------------|----------------|----------------|
A|----------------|----------------|----------------|----------------|
E|3-3-3-3-3-3-3-5-|*-*-*-*-*-*-*-*-|3-3-3-3-3-3-3-1-|*-*-*-*-*-*-*-*-|

G|----------------|----------------|----------------|----------------|
D|----------------|----------------|----------------|----------------|
A|----------------|----------------|----------------|----------------|
E|0-*-*-*-*-*-*-*-|1-*-*-*-*-*-*-*-|0-*-*-*-*-*-*-*-|1-*-*-*-*-*-*-*-|

G|----------------|----------------|----------------|----------------|
D|----------------|----------------|----------------|----------------|
A|----------------|----------------|----------------|----------------|
E|0-*-*-*-*-*-*-*-|1-*-*-*-*-*-*-*-|0-*-*-*-*-*-*-*-|1-*-*-*-*-*-*-*-|


G|----------------|----------------|----------------|----------------|
D|----------------|----------------|----------------|----------------|
A|----------------|----------------|----------------|----------------|
E|0-*-*-*-*-*-*-*-|1-*-*-*-*-*-*-*-|0-*-*-*-*-*-*-*-|1-*-*-*-*-*-*-*-|


G|----------------|----------------|----------------|----------------|
D|----------------|----------------|----------------|----------------|
A|----------------|----------------|----------------|----------------|
E|0-*-*-*-*-*-*-*-|1-*-*-*-*-*-*-*-|0-*-*-*-*-*-*-*-|1-*-*-*-*-*-*-*-|

G|----------------|----------------|----------------|----------------|
D|----------------|----------------|----------------|----------------|
A|----------------|----------------|----------------|----------------|
E|3-3-3-3-3-3-3-5-|*-*-*-*-*-*-*-*-|3-3-3-3-3-3-3-5-|*-*-*-*-*-*-*-*-|

G|----------------|----------------|----------------|----------------|
D|----------------|----------------|----------------|----------------|
A|----------------|----------------|----------------|----------------|
E|3-3-3-3-3-3-3-5-|*-*-*-*-*-*-*-*-|3-3-3-3-3-3-3-1-|*-*-*-*-*-*-*-*-|

G|----------------|----------------|----------------|----------------|
D|----------------|----------------|----------------|----------------|
A|0---0-0-3-3-3-3-|2-3-2-----------|0---0-0-3-3-3-3-|2-3-2-----------|
E|----------------|------1---1-1-3-|----------------|------1---1-1-3-|

G|----------------|----------------|----------------|----------------|
D|----------------|----------------|----------------|----------------|
A|0---0-0-3-3-3-3-|2-3-2-----------|0---0-0-3-3-3-3-|2-3-2-----------|
E|----------------|------1---1-1-3-|----------------|------1---1-1-3-|

G|----------------|----------------|----------------|----------------|
D|----------------|----------------|----------------|----------------|
A|0---0-0-3-3-3-3-|2-3-2-----------|0-*-*-*-*-*-*-*-|----------------|
E|----------------|------1---1-1-3-|----------------|----------------|

************************************

You can also check my video with this tab: https://www.youtube.com/watch?v=090kFqE4e0Y

************************************

            
            
Suggest correction
Creating personal tab
Creating personal tab
You can edit any tab online and save it as your Personal.

You can edit, replace or remove any tab part or add personal notes – all changes will be seen only by you.

Personal tabs can be accessed anytime from any device, even offline.
Learn more »
Give kudos to tab author, rate the tab!
1 2 3 4 5
comments
print report bad tab
guest
You may want to rate the tab now too:
select rating
Wanna post a correction for this tab? Suggest correction