Oops, an error
Loading. Please wait.

Murderers Are Getting Prettier Everyday solo tab

94 views 1 this week
no commentswrite comment
1 2 3 4 5
3 more votes to show rating
add to favorites
×
Save as Personal and add changes to this tab that will be seen only by you. Learn more ›
×
You can save this tab as Personal to edit and correct it or add notes. All changes will be seen only by you. Learn more »
launch autoscroll
font size
0
reset
how to read this tab
guitar tuner
edit
Autoscroll
slow
fast
+/-
esc
set tempo
stop
Let me start off by saying this: You are NOT going to be able to replicate Twiggy's exact tone for this solo! 
I got pretty close but it's still off but here's what I use: Dime From Hell wah on the 6th setting with
the Variable Q all the way up and Fine Tune all the way down, Volume can be wherever if you want to use the 
boost. 

Tuning: Drop D

Key
0*: Pinch Harmonic
17*18: Bend pinch harmonic up half step
Trm12: Tremolo pick the fret
22b24: Bend a full step

On the part where you tremolo pick the 12th fret and end on the bent 22nd fret, tremolo pick all of the notes!

E: |12b14-17-15-12-17-15-12-12-12-15-12-11----------17*b18|
B: |---------------------------------------12--12---------|
G: |------------------------------------------------------|
d: |------------------------------------------------------|
A: |------------------------------------------------------|
D: |------------------------------------------------------|

E: |------------------------------------------------|
B: |15~15~15~15~15~15~15~15~15~15~15~15~15~15~15~15~|
G: |------------------------------------------------|
d: |------------------------------------------------|
A: |------------------------------------------------|
D: |------------------------------------------------|

E: |16-14-13 ------------------------------------------------------|
B: |------------16-14-13-------------------------------------------|
G: |---------------------------------------------------------------|
d: |---------------------------------------------------------------|
A: |---------------------------------------------------------------|
D: |-------------------------16/-trm3|

E: |trm12-13-14-15-15-17-18-19-20-21-22-22-22-22-22-22-22-22-22b24-22b24-22b24-22b24-22b24-22b24-22b24-22b24-|
B: |---------------------------------------------------------------------------------------------------------|
G: |---------------------------------------------------------------------------------------------------------|
d: |---------------------------------------------------------------------------------------------------------|
A: |---------------------------------------------------------------------------------------------------------|
D: |---------------------------------------------------------------------------------------------------------|

E: |14--19-17-14-17-14-12-14-12-9-12-9-8-9-8-5-8-5-4-2-4-2-0|
B: |--------------------------------------------------------|
G: |--------------------------------------------------------|
d: |--------------------------------------------------------|
A: |--------------------------------------------------------|
D: |--------------------------------------------------------|

            
            
Suggest correction
Creating personal tab
Creating personal tab
You can edit any tab online and save it as your Personal.

You can edit, replace or remove any tab part or add personal notes – all changes will be seen only by you.

Personal tabs can be accessed anytime from any device, even offline.
Learn more »
Give kudos to tab author, rate the tab!
1 2 3 4 5
comments
print report bad tab
guest
You may want to rate the tab now too:
select rating
Wanna post a correction for this tab? Suggest correction