Oops, an error
Loading. Please wait.

New Model No15 bass

859 views 1 this week
1 commentread comment
1 2 3 4 5
1 last vote to show rating
add to favorites
×
Save as Personal and add changes to this tab that will be seen only by you. Learn more ›
×
You can save this tab as Personal to edit and correct it or add notes. All changes will be seen only by you. Learn more »
launch autoscroll
font size
0
reset
guitar tuner
edit
Autoscroll
slow
fast
+/-
esc
set tempo
stop
Difficulty
  		NEW MODEL NO.15 bass tab

artist:marilyn manson
mail:jv1_bass@yahoo.fr
album:mechanical animals
tabber:julien 
4/4

INTRO/CHORUS
G|----------------:----------------:--------------:----------------|
D|----------------:----------------:--------------:----------------|
A|----------------:----------------:--------------:----------------|
E|3-x3-0-5-x3-0-x-:0-3-0-5-x-3-0-x-:0-3-0-5-x-3-0-:x-0-3-0-5-*-*-*-|

PRE CHORUS
G|----------------:----------------:----------------|
D|----------------:----------------:----------------|
A|5---7---*---*---:2---0---*---*---:*---*---*---*---|
E|----------------:----------------:----------------|

BRIDGE Part 1
 first part(x2)
G|----------------:----------------:----------------:----------------:----------------|
D|----------------:----------------:----------------:----------------:----------------|
A|5-5-5-5-5-5-x-5-:3-3-3-3-3-3-x-3-:5-5-5-5-5-5-x-5-:3-3-3-3-3-3-x-3-:3-3-3-3-3-3-x-3-|
E|----------------:----------------:----------------:----------------:----------------| 
second part x1
G|----------------:----------------:----------------:----------------|
D|------------5---:------------5---:----------------:----------------|
A|----------------:----------------:----------------:----------------|
E|3-3-------------:3-3-------------:3-3-------------:3-3-------------|

BRIDGE part 2
G|----------------:----------------:----------------:----------------|
D|----------------:----------------:----------------:------------5---|
A|----------------:----------------:----------------:----------------|
E|3-3-------------:3-3-------------:3-3-------------:3-3-------------|

G|----------------:----------------:----------------:----------------|
D|----------------:----------------:----------------:----------------|
A|----------------:----------------:----------------:----------------|
E|3-3-------------:3-3-------------:3-3-------------:3-3-------------|

LAST CHORUS
at a moment on the end,when he sings new model model model model you have to add this
G|----------------|
D|----------------|
A|----------------|
E|0-5-----0-5-----|







            
            
Suggest correction
Creating personal tab
Creating personal tab
You can edit any tab online and save it as your Personal.

You can edit, replace or remove any tab part or add personal notes – all changes will be seen only by you.

Personal tabs can be accessed anytime from any device, even offline.
Learn more »
Give kudos to tab author, rate the tab!
1 2 3 4 5
comments
print report bad tab
1 comment total.
0 reply
cubbykovu66 10 Oct 23, 2007 01:27 AM

This tab is Wrong I played it the same way as you wrote it while playing with the song and I checkedI was in tune but it is wrong

guest
Wanna post a correction for this tab? Suggest correction