Oops, an error
Loading. Please wait.

Pretty As A Swastika tab

version 3
version 3

Whole song

Interactive

1,002 views 1 this week
no commentswrite comment
1 2 3 4 5
1 last vote to show rating
add to favorites
×
Save as Personal and add changes to this tab that will be seen only by you. Learn more ›
×
You can save this tab as Personal to edit and correct it or add notes. All changes will be seen only by you. Learn more »
launch autoscroll
font size
0
reset
how to read this tab
guitar tuner
edit
Autoscroll
slow
fast
+/-
esc
set tempo
stop
-------------------------------------------------------------------------------
                             Pretty as a Swastika - Marilyn Manson
-------------------------------------------------------------------------------
Tabbed by: ironmanben
Email: bentrooper@gmail.com

Tuning: e B G D A D (drop D)

The other tab on here is a little off.  This is the 100% correct version.

You may not know it, but there are 2 guitars in this song.

main riff ver. 1 x2
guitar 1
e|----------------------------------|
B|----------------------------------|
G|-7-7-7-7-7-7-7-7-1010101010101010-|
D|-7-7-7-7-7-7-7-7-1010101010101010-|
A|-5-5-5-5-5-5-5-5-8-8-8-8-8-8-8-8--|
D|----------------------------------|
guitar 2
e|---------------------------------|
B|---------------------------------|
G|-7-7-7-7-7-7-7-7-7-7-7-7-7-7-7-7-|
D|-7-7-7-7-7-7-7-7-7-7-7-7-7-7-7-7-|
A|-5-5-5-5-5-5-5-5-5-5-5-5-5-5-5-5-|
D|---------------------------------|

main riff ver. 2 x4
guitar 1
e|----------------------------------|
B|----------------------------------|
G|-7-7-7-7-7-7-7-7-1010101010101010-|
D|-7-7-7-7-7-7-7-7-1010101010101010-|
A|-5-5-5-5-5-5-5-5-8-8-8-8-8-8-8-8--|
D|----------------------------------|
guitar 2
e|----------------------------------|
B|----------------------------------|
G|-7-7-7-7-7-7-7-7-1010101010101010-|
D|-7-7-7-7-7-7-7-7-1010101010101010-|
A|-5-5-5-5-5-5-5-5-8-8-8-8-8-8-8-8--|
D|----------------------------------|

verse x2 (parts 1 and 2 together):
part 1 x1:
guitar 1
e|---------------------------------|
B|---------------------------------|
G|---------------------------------|
D|-8-8-8-8-8-8-8-8-8-8-8-8-8-8-8-8-|
A|-8-8-8-8-8-8-8-8-8-8-8-8-8-8-8-8-|
D|-8-8-8-8-8-8-8-8-8-8-8-8-8-8-8-8-|
guitar 2
e|---------------------------------|
B|---------------------------------|
G|---------------------------------|
D|-8-8-8-8-8-8-8-8-8-8-8-8-8-8-8-8-|
A|-8-8-8-8-8-8-8-8-8-8-8-8-8-8-8-8-|
D|-8-8-8-8-8-8-8-8-8-8-8-8-8-8-8-8-|

part 2 x2:
guitar 1
e|----------------------------------|
B|----------------------------------|
G|-7-5-7-5-7-5-7-5-1010101010101010-|
D|-7-5-7-5-7-5-7-5-1010101010101010-|
A|-5-3-5-3-5-3-5-3-8-8-8-8-8-8-8-8--|
D|----------------------------------|
guitar 2
e|----------------------------------|
B|----------------------------------|
G|-7-7-7-7-7-7-7-7-1010101010101010-|
D|-7-7-7-7-7-7-7-7-1010101010101010-|
A|-5-5-5-5-5-5-5-5-8-8-8-8-8-8-8-8--|
D|----------------------------------|

bridge x1:
part 1 x1:
guitar 1
e|-----------------------------------------------------------------|
B|-----------------------------------------------------------------|
G|-----------------------------------------------------------------|
D|-8-8-8-8-8-8-8-8-8-8-8-8-8-8-8-8-8-8-8-8-8-8-8-8-8-8-8-8-8-8-8-8-|
A|-8-8-8-8-8-8-8-8-8-8-8-8-8-8-8-8-8-8-8-8-8-8-8-8-8-8-8-8-8-8-8-8-|
D|-8-8-8-8-8-8-8-8-8-8-8-8-8-8-8-8-8-8-8-8-8-8-8-8-8-8-8-8-8-8-8-8-|
guitar 2
e|-----------------------------------------------------------------|
B|-----------------------------------------------------------------|
G|-----------------------------------------------------------------|
D|-8-8-8-8-8-8-8-8-8-8-8-8-8-8-8-8-8-8-8-8-8-8-8-8-8-8-8-8-8-8-8-8-|
A|-8-8-8-8-8-8-8-8-8-8-8-8-8-8-8-8-8-8-8-8-8-8-8-8-8-8-8-8-8-8-8-8-|
D|-8-8-8-8-8-8-8-8-8-8-8-8-8-8-8-8-8-8-8-8-8-8-8-8-8-8-8-8-8-8-8-8-|

part 2 x4 (this is still the bridge):
guitar 1
e|--------------------|
B|--------------------|
G|--------------------|
D|-0-0--0-0--0-0--0-0-|
A|-0-0--0-0--0-0--0-0-|
E|-0-0--0-0--0-0--0-0-|
guitar 2
e|--------------------|
B|--------------------|
G|--------------------|
D|-0-0--0-0--0-0--0-0-|
A|-0-0--0-0--0-0--0-0-|
E|-0-0--0-0--0-0--0-0-|

main riff ver. 1 x2

main riff ver. 4 x4
guitar 1 is silent
guitar 2:
e|---------------------------------|
B|---------------------------------|
G|---------------------------------|
D|---------------------------------|
A|-5-5-5-5-5-5-5-5-8-8-8-8-8-8-8-8-|
D|---------------------------------|

verse x1
bridge x1, but this time, play part two 8 times
(you can also solo over both the verse and the bridge)

then there is a guitar solo utilizing the whammy bar and scratching, and then a bass 
for the rest of the song.

| /  slide up
| \  slide down
| h  hammer-on
| p  pull-off
| ~  vibrato
| +  harmonic
| x  Mute note
============================================================================

            
            
Suggest correction
Creating personal tab
Creating personal tab
You can edit any tab online and save it as your Personal.

You can edit, replace or remove any tab part or add personal notes – all changes will be seen only by you.

Personal tabs can be accessed anytime from any device, even offline.
Learn more »
Give kudos to tab author, rate the tab!
1 2 3 4 5
comments
print report bad tab
guest
You may want to rate the tab now too:
select rating
Wanna post a correction for this tab? Suggest correction