Oops, an error
Loading. Please wait.

Putting Holes In Happiness Tab

version 1
version 1

Solo

Whole song

Interactive

47,810 views 129 this week
no commentswrite comment
1 2 3 4 5
accurate
x 8
add to favorites
launch autoscroll
font size
0
reset
how to read this tab
guitar tuner
Tab Pro tools
  • play this tab
  • loop segment
  • change instrument
  • show fretboard
  • metronome
Autoscroll
slow
fast
+/-
esc
set tempo
stop
Contributor
Main riff:
e---------------------------------------------------------------------------|
b---------------------------------------------------------------------------|
g-------------------------------5-5-5------------------------------5-5-5----|
d------0-0h2-2---2-2---5---5-5--5-5-5--7---7-7---2---2-2--5---5-5--5-5-5-7--|
a--0h2-------2---2-2---5---5-5--3-3-3--7---7-7---2---2-2--5---5-5--3-3-3-7--|
e------------0---0-0---3---3-3---------5---5-5---0---0-0--3---3-3--------5--|

this riff is played though out the whole song:
e------------------------------------------|
b--8-7-8-7-8~-----7-8-7-8/10~-----8-7-5-8~-|
g------------------------------------------|
d------------------------------------------|
a------------------------------------------|
e------------------------------------------|

solo:
e-----3p00----------------------------------------------------------------|
b-3b5------3p00----0----0----0----0-------10/12----12-15----12-15----12-15|
g---------------2b4--2b4--2b4--2b4--2-0--------14B------14B------14B------|
d---------------------------------------2---------------------------------|
a-------------------------------------------------------------------------|
e-------------------------------------------------------------------------

e-------------------------------------------------------------------------|
b----12-------------------------------------------------------------------|
g-14B--14-12B---7-9-7-----4-7-4-------------------------------------------|
d-----------------------9---------7--7-5-7-5---5---5----------------------|
a--------------------------------------------7---7---7p5-7p5---5----------|
e------------------------------------------------------------7----7p5-7p5-|

e------------------12-----11-----10--7777-----------------------------|
b--------------10B----10B----10B-----8888-----------------------------|
g-------------------------------------------9~------------------------|
d---------------------------------------------------------------------|
a----------------------------------------------------5/7-5-------5/7--|
e-3-5-3-5-7-0-----------------------------------3-5p3-----7p5\3p0---0-|

e----12----11----10-----77777---------------------|
b-10B---10B---10B---10B-88888-10~--10~-10~-10/17~-|
g-------------------------------------------------|
d-------------------------------------------------|
a-------------------------------------------------|
e-------------------------------------------------|

e------------------------------------3h5p3-7h8p7---8p7---7-8p7-------|
b----------------------3h5p3-5--5h8p5------------8-----8-------5b8r5-|
g--------------------------------------------------------------------|
d---------------2h5p2-5----------------------------------------------|
a--------2h5p2-5-----------------------------------------------------|
e-3h5p3-5------------------------------------------------------------|

e-------12-15p12------------12-15p12----------------------------|
b-----12--------15-12-----12--------15-12-19----20----22--------|
g---12------------------12-------------------16----17----19-21B~|
d-14------------------14----------------------------------------|
a---------------------------------------------------------------|
e---------------------------------------------------------------|

e------------------------------------------------------------------|
b---12-------------------------------------------------------------|
g-9---12-9~---0h4p0------------------------------------------------|
d-------------------2~-----------9-10/12-12\11---11--12~--12/14\11-|
a--------------------------10-12-----------------------------------|
e-----------------------/12----------------------------------------|

e-------12--14--15--17----19B~-|
b-----12--12--12--12--12-------|
g---12-------------------------|
d-14---------------------------|
a------------------------------|
e------------------------------|
comments
print report bad tab
I want to post or [tab]
guest
You may want to rate the tab now too:
select rating
Please do not post tabs as comments. Select "correction" instead!