Oops, an error
Loading. Please wait.
We have Chord Pro version of Putting Holes In Happiness.
It's the closest thing you can get to the original song and it has interactive parts. Check out the tab »
×
10,850 views 3 this week
6 commentsread comments
1 2 3 4 5
x 9
add to favorites
×
Save as Personal and add changes to this tab that will be seen only by you. Learn more ›
×
You can save this tab as Personal to edit and correct it or add notes. All changes will be seen only by you. Learn more »
launch autoscroll
font size
0
reset
how to read this tab
guitar tuner
backing track
0:00
0:00
edit
Autoscroll
slow
fast
+/-
esc
set tempo
stop
Difficulty
Putting Holes In Happiness.
Marilyn Manson.
Eat Me, Drink Me.
2007 (Interscope Records?)
Go Buy It.
Or Download It.
Or Steal It.
JUST HEAR IT!

Tabbed By Kel;
Add me as you please -
cnk_off_of_usa@hotmail.co.uk
myspace.com/the_god_bandaid
EatMe-DrinkMe.bebo.com

Standard Tuning.

h = Hammer On.


0.00 -> 00.10
Wierd Organ Intro Thingy.


0.10 -> 0.31
Guitar Main Riff.

E  [------------------------------------------------------------|
B  [------------------------------------------------------------|
G  [------------------------------------------------------------|
D  [----------0---0 h 2--------2-------5-----10-----7-----------|
A  [-0 h 2---------------------2-------5-----10-----7-----------|
E  [---------------------------0-------3-----8------5-----------|

                                       (^  You can work the strumming
                                            out yourselves.
                                            You\'re smart people!)


0.31 -> 0.36
End of Intro Bit.

E  [------------------------------------------------------------------------|
B  [------------------------------------------------------------------------|
G  [------------------------------------------------------------------------|
D  [----------0---0 h 2--------10------9------------------------------------|
A  [-0 h 2---------------------10------9------------------------------------|
E  [---------------------------8-------7--------------3---5--0--------------|
                                     (^ See above)    (^ This bit is
                                                         played by the
                                                         bass but i like
                                                         to play it anyway)
Hmmm...
I think you play those bits in the Chorus and the Other Bits.

Oh,
I can\'t be asked to work out the Verse bits, it\'s too low in the mix,
and hard to hear. I don\'t think it matters that much.

You\'re on your own when it comes to the solo.
I think Skold\'s brilliance puts us ALL in shadow,
and i don\'t want to be the one to shine a dappled light on it.

Kel;

            
            
Suggest correction
Creating personal tab
Creating personal tab
You can edit any tab online and save it as your Personal.

You can edit, replace or remove any tab part or add personal notes – all changes will be seen only by you.

Personal tabs can be accessed anytime from any device, even offline.
Learn more »
comments
print report bad tab
6 comments total. Showing first comments.
+1 reply
deamonhunter13 10 Sep 09, 2007 08:56 AM

this sucked
wat about the solo?
"you can work out the strumming?"
wtf?!

-2 reply
blindman-07 72 Oct 09, 2007 08:38 PM

what briliance tim skolds a shit guitarist

+1 reply
blindman-07 72 Oct 12, 2007 05:33 PM

dude ur a total dick if ur guna tab a song then du the whole thing and dont say shit like "u can work outh the strumming" and we dont give a f***if u want to play the bassline

guest
Wanna post a correction for this tab? Suggest correction