Oops, an error
Loading. Please wait.

Rock And Roll Nigger Tab

version 1
version 1

Whole song

2,983 views 3 this week
3 commentsread comments
1 2 3 4 5
x 6
add to favorites
launch autoscroll
font size
0
reset
how to read this tab
guitar tuner
×
Best way to learn
"Rock And Roll Nigger"
Autoscroll
slow
fast
+/-
esc
set tempo
stop
#----------------------------------PLEASE NOTE---------------------------------#
#This file is the author's own work and represents their interpretation of the #
#song. You may only use this file for private study, scholarship, or research. #
#------------------------------------------------------------------------------##
Date: Sun, 29 Oct 1995 04:08:45 -0500
From: belial@psu.edu (Shleestak)
Subject: TAB "Rock & Roll Nigger"  Marilyn Manson

Here is rockNroll nigger as performed by Marily Manson...Soon as the Dope
Hat single came out i had to tab it...it's soooooo good.  look also for I
Put a Spell on You and the acoustic "White Trash/Cake and Sodomy"



ROCK AND ROLL NIGGER


^=up-stroke
v-down-stroke

 pm----| ^v    pm--   ^v           ^v
B|------------|------------|------------|------------|
G|------------|------------|------------|------------|
D|-------77/9-|-------77/9-|-------77/9-|--9\7-------|
A|-------55/7-|-------55/7-|-------55/7-|--7\5---9\7-|
E|-00000------|-00000------|-00000------|------0-7\5-|


B|-------------------------|
G|-------------------------|
D|---------------9\7-------|
A|---------------7\5---9\7-|
E|-0000000000****----0-7\5-|  *=blah # of times


outside in society....

B|-----------------------|
G|-----------------------|
D|--7/9-999--9-----------|
A|--5/7-777--79-99\7-7---|
E|------------7-77\5-5---|  at least that's how i play it.



tabbed by shleestak of course 8)

any mail direct towards:
ddd127@psu.edu
belial@psu.edu

"Dare to be honest, be yourself.  A cowardly man......"  -=Korn=-

                           FVGAZI.

   me homepage.... http://comland.com/~darrend/Belial.htm



Suggest correction
comments
print report bad tab
3 comments total.
0 reply
acafaca 10 Apr 08, 2003 08:00 PM

G----------- G-------------------
D------99/7- D----12----9--------
A------77/5- x3 A----12----7-------
E-00000----- E--0-10--9-7----------
pm....

0 reply
acafaca 10 Apr 08, 2003 08:00 PM

D--------------99\7
A--------------77\5 X3
E--------00000-----

then:
-------12------9-----
-------12------7-----
----0--10---9--7-------

0 reply
mohawkkidJohn 102 May 15, 2007 05:40 PM

You are totally missing a string dude.

guest
You may want to rate the tab now too:
select rating
Wanna post a correction for this tab? Suggest correction