Oops, an error
Loading. Please wait.

Rock Is Dead bass

version 3
version 3

Whole song

Interactive

3,609 views 6 this week
2 commentsread comments
1 2 3 4 5
x 7
add to favorites
×
Save as Personal and add changes to this tab that will be seen only by you. Learn more ›
×
You can save this tab as Personal to edit and correct it or add notes. All changes will be seen only by you. Learn more »
launch autoscroll
font size
0
reset
guitar tuner
backing track
0:00
0:00
edit
Autoscroll
slow
fast
+/-
esc
set tempo
stop
the intro/main riff goes:

  G|-----------------|------------------|
  D|-----------------|------------------|
  A|-----------------|------------------|
  E|-2-x-2-x-2-x-2-5-|-2-x-2-x-2-/9-7-4-|

the bridge is:

  G|-----------------|------------------|-----------------|
  D|-----------------|------------------|-----------------|
  A|-----------------|-3------5---------|3-----5----------|
  E|---3-------------|-------x------5---|-----x-----------|

and the main chorus:

  G|-----------------|------------------|-----------------|-----------------|
  D|-----------------|------------------|-----------------|-----------------|
  A|-9----x-7---9--7-|-9----x-7---9--7--|-7----x-5---7--5-|-7----x-5---7--5-|
  E|-----------------|------------------|-----------------|-----------------|

  G|-----------------|------------------|-----------------|-----------------|
  D|-----------------|------------------|-----------------|-----------------|
  A|-5----x-4---5--4-|-5----x-4---5--4--|-4-4-4-4-4-4-----|-7-7-7-7-7-7-----|
  E|-----------------|------------------|-----------------|-----------------|

and the song order is:


intro/main riffx4
bridgex1
main chorusx1
wait for a bit
intro/main riff x2
wait for a bit
intro/main riffx2
bridgex1
main chorusx1
wait 
intro/main riffx4
bridgex1
main chorusx2

this is my first tabs ever so if it sounds wrong or u have any complaints plz
feel free to e-mail me at suck-my-hairy-balls@my house.com if u have anything
nice to say plz e-mail me at bundyvalentine@hotmail.com
Suggest correction
Creating personal tab
Creating personal tab
You can edit any tab online and save it as your Personal.

You can edit, replace or remove any tab part or add personal notes – all changes will be seen only by you.

Personal tabs can be accessed anytime from any device, even offline.
Learn more »
comments
print report bad tab
2 comments total.
0 reply
Robin Graves 1,015 Jan 02, 2007 07:17 AM

actually i believe the main riff goes like this:

A----------------------------9-7----
E-2-2-2-2-2-2-2-5--2-2-2-2-2-----9--

0 reply
STeven on bass! 10 May 21, 2007 06:57 PM

bahaha loving the e-mail adress. nice tab though 4 stars

guest
Wanna post a correction for this tab? Suggest correction