Oops, an error
Loading. Please wait.

Say10 intro tab

127 views 39 this week
no commentswrite comment
1 2 3 4 5
3 more votes to show rating
add to favorites
×
Save as Personal and add changes to this tab that will be seen only by you. Learn more ›
×
You can save this tab as Personal to edit and correct it or add notes. All changes will be seen only by you. Learn more »
launch autoscroll
font size
0
reset
how to read this tab
guitar tuner
edit
Autoscroll
slow
fast
+/-
esc
set tempo
stop
About this tab version
I have not yet seen a tab for Marilyn Manson's new song Say10. This is obviously what I picked up from listening to the demo, so it might not be perfect. However, the notes were counted to improve accuracy. Was this info helpful? Yes No
(Chorus)          
(1st verse has no guitar)

E|--------------------------------------------------------------------------------------------------|
B|--------------------------------------------------------------------------------------------------|
G|-5-5-5--7-7-5h7h5h7-7-7-7-7-7-5-2----------------------7-7-7-7-5-2--------------------------------|
D|-5-5-5--7-7-5h7h3h7-7-7-7-7-7-5-2-5-3-3-3-3-3-3-3-3-3--7-7-7-7-5-2-3-5-5-5-5-5-5-5-5-5-3-5-7-5-3-0|
A|-3-3-3--5-5-3h5h3h5-5-5-5-5-5-3-0-5-3-3-3-3-3-3-3-3-3--5-5-5-5-3-0-3-5-5-5-5-5-5-5-5-5-3-5-7-5-3-0|
D|----------------------------------5-3-3-3-3-3-3-3-3-3--------------3-5-5-5-5-5-5-5-5-5-3-5-7-5-3-0|

(Continued)
E|----------------------------|
B|----------------------------|
G|------------------7-7-7-7-5-|
D|-0-0-0-0-0-0-0-0--7-7-7-7-5-|
A|-0-0-0-0-0-0-0-0--5-5-5-5-3-|
D|-0-0-0-0-0-0-0-0------------|
 
https://www.youtube.com/watch?v=N3oGIx7KYTA

I used the link above to help write this tab. Listen to the song to learn the strumming times and rhythm.



************************************

| h  Hammer-on

************************************
Suggest correction
Creating personal tab
Creating personal tab
You can edit any tab online and save it as your Personal.

You can edit, replace or remove any tab part or add personal notes – all changes will be seen only by you.

Personal tabs can be accessed anytime from any device, even offline.
Learn more »
Give kudos to tab author, rate the tab!
1 2 3 4 5
comments
print report bad tab
guest
You may want to rate the tab now too:
select rating
Wanna post a correction for this tab? Suggest correction