Oops, an error
Loading. Please wait.

Suicide Snowman Tab

728 views 1 this week
2 commentsread comments
1 2 3 4 5
please rate
add to favorites
launch autoscroll
font size
0
reset
how to read this tab
guitar tuner
Autoscroll
slow
fast
+/-
esc
set tempo
stop
Help us to improve Ultimate-Guitar.com Take our survey!
×
Song: Suicide Snowman
Artist: Marilyn Manson
Album: Refridgerator
As tabbed by Joe Muggah

Intro
e----------------------------------------------------------
B----------------------------------------------------------
G--13-13-13-13-13-13-13-13---------------------------------
D---x--x--x--x--x--x--x--x--(all x2)----------------------- 
A--11-11-11-11-11-11-11-11---------------------------------
E---0--0--0--0--0--0--0--0---------------------------------

Verse 1 (mostly palm muted with wah wah) 
e----------------------------------------------------------
B----------------------------------------------------------
G--13-13-13-13-13-13-13^-13^-----------------\-------------
D---x--x--x--x--x--x--x---x--(all x 2 then)----------------
A--11-11-11-11-11-11-11^-11^-----------------\-------------
E---0--0--0--0--0--0--0---0--------------------------------
("If I had time to kill the world...")

(continued)
e----------------------------------------------------------
B----------------------------------------------------------
G----------------------------------------------------------
D--10-10-10-10-10-10-10-10-\7-7-7-7-7-7-7-7----------------
A--10-10-10-10-10-10-10-10-\7-7-7-7-7-7-7-7----------------
E---8--8--8--8--8--8--8--8-\5-5-5-5-5-5-5-5----------------

Riff 1 (with wah twice then Riff 2)
e----------------------------------------------------------
B----------------------------------------------------------
G--9-9-9--15-15--13-13-13--9-9-9--15-15--19-19-19----------
D--x-x-x---x--x---x--x--x--x-x-x---x--x---x--x--x----------
A--7-7-7--13-13--11-11-11--7-7-7--13-13--17-17-17----------
E--0-0-0---0--0---0--0--0--0-0-0---0--0---0--0--0----------

Riff 2
e------------8--------5---0--------------------------------
B------------8--------5---0--------------------------------
G------------9--------6---9--------------------------------
D--10-10-10-10--7-7-7-7---9---8\-----9\--------------------
A--10-10-10-10--7-7-7-7---7---7\---------------------------
E---8--8--8--8--5-5-5-5---0---0----------------------------

Verse 2
e----------------------------------------------------------
B----------------------------------------------------------
G--9-9--15-15--9-9--13-13--9-9--19-19--9-9--13-13----------
D--x-x---x--x--x-x---x--x--x-x---x--x--x-x---x--x----------
A--7-7--13-13--7-7--11-11--7-7--17-17--7-7--11-11----------
E--0-0---0--0--0-0---0--0--0-0---0--0--0-0---0--0----------

Pre-Solo
e----------------------------0-----------------------------
B----------------------------0-----------------------------
G--9-9--15-15--9-9--13-13--9-9-----------------------------
D--x-x---x--x--x-x---x--x--x-x-----------------------------
A--7-7--13-13--7-7--11-11--7-7-----------------------------
E--0-0---0--0--0-0---0--0--0-0-----------------------------

Solo
e----------------------------------------------------------
B----------------------------------------------------------
G--7/9-9-9-9--7/9-9-9-9--7/9-9-9-9--10\9-9-9-9--13-13------
D--x---x-x-x--x---x-x-x--x---x-x-x---x---x-x-x---x--x------
A--5/7-7-7-7--5/7-7-7-7--5/7-7-7-7---8\7-7-7-7--11-11------
E----------------------------------------------------------

(continued)
e----------------------------------------------------------
B----------------------------------------------------------
G--11-11--9-9--11-11--9-9--7-7--9-9-9-9---4-4--7-7--9-9----
D---x--x--x-x---x--x--x-x--x-x--x-x-x-x---x-x--x-x--x-x----
A---9--9--7-7---9--9--7-7--5-5--7-7-7-7---2-2--5-5--7-7----
E----------------------------------------------------------

(continued)
e----------------------------------------------------------
B----------------------------------------------------------
G--4-4--7-7--9-9--4-4--7-7--9-9--10-10--9-9--10-10--9--\---
D--x-x--x-x--x-x--x-x--x-x--x-x---x--x--x-x---x--x--x------
A--2-2--5-5--7-7--2-2--5-5--7-7---8--8--7-7---8--8--7--\---
E----------------------------------------------------------

(continued)
e--14-14-14-14--12-12-12-12--14-14-14-14--12-12-12-12------
B---x--x--x--x---x--x--x--x---x--x--x--x---x--x--x--x------
G--11-11-11-11---9--9--9--9--11-11-11-11---9--9--9--9------
D----------------------------------------------------------
A----------------------------------------------------------
E----------------------------------------------------------

(continued)
e--10-10-10-10--9-9-9-9--10-10-10-10--9-9\-----------------
B---x--x--x--x--x-x-x-x---x--x--x--x--x-x------------------
G---7--7--7--7--6-6-6-6---7--7--7--7--6-6\---13-13-11-11---
D---------------------------------------------x--x--x--x---
A--------------------------------------------11-11--9--9---
E----------------------------------------------------------

(continued)
e----------------------------------------------------------
B----------------------------------------------------------
G--9-9-11-11-9-9-7-7-9-9-14-14--9-9-9-9--10-10-10-10--9-9\-
D--x-x--x--x-x-x-x-x-x-x--x--x--x-x-x-x---x--x--x--x--x-x--
A--7-7--9--9-7-7-5-5-7-7-12-12--7-7-7-7---8--8--8--8--7-7\-
E----------------------------------------------------------

Fill
e-------------------------------0--------------------------
B-------------------------------0--------------------------
G--------9-------------9--9--9--x--------------------------
D-----8----------------8--8--8--6--------------------------
A--7---------7--7--7---7--7--7--7--------------------------
E----------------------------------------------------------
("Spring...")

Chorus 1
e----------------------------------------------------------
B----------------------------------------------------------
G-----------11-11\9------------9-9-9\7-7-------------------
D------------x--x--------------x-x-x---x---(all x3 then:)--
A--7m-7m-7m--9--9\7--7m-7m-7m--7-7-7\5-5-------------------
E--0m-0m-0m----------0m-0m-0m------------------------------

(continued)
e----------------------------------------------------------
B----------------------------------------------------------
G--11-11-11-11-11\9--9--7--9--7-\--------------------------
D---x--x--x--x--x----x--x--x--x----------------------------
A---9--9--9--9--9\7--7--5--7--5-\--------------------------
E----------------------------------------------------------

Chorus 2
e----------------------------------------------------------
B----------------------------------------------------------
G----------------------------------------------------------
D--12-12-12-12-12-12-12\-7-7-7-7--5-5--4-4-----------------
A--12-12-12-12-12-12-12\-7-7-7-7--5-5--4-4-----------------
E--10-10-10-10-10-10-10\-5-5-5-5--3-3--2-2-----------------
("Snow melting...")

Chorus 3
e------------14-14\12------------12-12-12\10-10------------
B-------------x--x----------------x--x--x------------------
G------------11-11\-9-------------9--9--9\-7--7---(all x3)-
D----------------------------------------------------------
A--7m-7m-7m------------7m-7m-7m----------------------------
E--0m-0m-0m------------0m-0m-0m----------------------------

(continued)
e--14-14-14-14-14\12--12--10--12--10-\---------------------
B---x--x--x--x--x------x---x---x---x-----------------------
G--11-11-11-11-11\-9---9---7---9---7-\---------------------
D----------------------------------------------------------
A----------------------------------------------------------
E----------------------------------------------------------

Chorus 4
e----------------------------------------------------------
B----------------------------------------------------------
G--7^------------------------------------------------------
D---------7-----5---4--------------------------------------
A----------------------------------------------------------
E----------------------------------------------------------

Outro 1
e-----------------------------------------------10---------
B-----------11^------------8^--8^------------11------------
G--9-9-9-9--------9-9-9-9-----------9-9-9-9----------------
D----------------------------------------------------------
A----------------------------------------------------------
E----------------------------------------------------------

(continued)
e----------------------------------------------------------
B-----------8^--8^-----------------------------------------
G--9-9-9-9-------------------------------------------------
D----------------------------------------------------------
A----------------------------------------------------------
E----------------------------------------------------------

Outro 2
e----------------------------------------------------------
B---------------23^---------------20^--20^-----------------
G--21-21-21-21-------21-21-21-21---------------------------
D----------------------------------------------------------
A----------------------------------------------------------
E----------------------------------------------------------

(continued)                                      Outro 3
e-------------------22-------------------------|-----------
B---------------23-------------------20^--20^--|-----------
G--21-21-21-21----------21-21-21-21------------|---9-------
D----------------------------------------------|---9-------
A----------------------------------------------|---7-------
E----------------------------------------------|---0-------


Verse 1
Riff 1
Riff 2
Verse 1
Verse 2
Verse 1
Pre-Solo
Solo
Verse 1
Verse 2
Fill
Chorus 1
Chorus 2
Chorus 1
Chorus 2
Chorus 3
Chorus 2
Chorus 3
Chorus 4
Chorus 3
Chorus 4
Verse 2
Verse 1
Verse 2
Verse 1
Verse 2
Fill
Chorus 1
Chorus 2
Chorus 3
Chorus 4
Outro 1
Outro 2
Outro 1
Outro 3

This is an insanely long tab. It's almost all played with wah
wah too.


===================================================================


          Tabbed by: Mike Gagnon
          Marilyn Manson
          Suicide Snowman
          From: The Refidgerator demos
          Hell of A song very hard to tab
          Standard Tuning (eBGDAE)
          
          If you don't have a wah-wah don't even bother trying to play this song,             
          it just doesn't work out
          
          Intro
          
          e--------------------------
          B--------------------------
          G--------------------------
          D-666666666666---14-14--2-2 
          A-----------------------0-0
          E-000000000000----0--0--0-0
          
          After Mr. Manson says "Killing Me"
          
          e--------------------------------10-10-10
          B--------11-11-9-9-9-------11-11---------
          G-7-9-9--------------7-9-9---------------
          D----------------------------------------
          A----------------------------------------
          E----------------------------------------
          
          verse
          
          e-----------------------10-10--------
          B-----11-11-----8-8---------------8-8
          G-9-9-------9-9-----9-9-------9-9----
          D------------------------------------
          A------------------------------------
          E------------------------------------
          
          Solo "Kinda long and Complicated)
          
          e-----------------------------------------------------141414-12-141414-12
          B------------------9-7---------------------------------------------------
          G-7-9-9-9-10-9-9-9----9-10-9-7-9---7-9--7-9--7-9-10-9--------------------
          D-------------------------------9-----9----9-----------------------------
          A------------------------------------------------------------------------
          E------------------------------------------------------------------------
          
          Solo Continued
          
          e--------------------------------------------
          B-151515-13-151515-13-9-7-----------9--------
          G-------------------------9-10-9-7-9--9-10-9-
          D--------------------------------------------
          A--------------------------------------------
          E--------------------------------------------
          
          Chorus "Snow Melts"
          
          e---------------------------------
          B---------------------------------
          G---------------------------------
          D-7-7-7-7-7-7-7-7-2-2-2-2---------
          A-5-5-5-5-5-5-5-5-0-0-0-0-5-5-4-4-
          E-------------------------3-3-2-2-
          
          Bridge (Sounds Acoustic)
          
          e--------------------------------------
          B--------------------------------------
          G--------------------------------------
          D-x-x-x-x-x-11/7-x-x-x-x-x-9-9-9-9/7-7-
          A-x-x-x-x-x-9-/5-x-x-x-x-x-7-7-7-7/5-5-
          E--------------------------------------
          
          Repeat 3 times
          
          e------------------------
          B------------------------
          G------------------------
          D-11-11-11-11/9-9-7-9-7/-
          A-9--9--9--9/ 7-7-5-7-5/-
          E------------------------
          
          Outro (of the solo variety)
          
          e-------------------------------------10------------
          B---------11^--------8^-8^---------11---------8^-8^-
          G-9-9-9-9----9-9-9-9-------9-9-9-9----9-9-9-9-------
          D---------------------------------------------------
          A---------------------------------------------------
          E---------------------------------------------------
          
          continued
          
          e-------------18^-----------15^-15^-----------18-21-----------15^-15^-
          B-17-17-17-17----17-17-17-17-------17-17-17-17-----17-17-17-17--------
          G---------------------------------------------------------------------
          D---------------------------------------------------------------------
          A---------------------------------------------------------------------
          E---------------------------------------------------------------------
          
          To play this song you would have to listen to the song to know when and
          how to use the Wah-Wah.  P.S. This song is a real Bi**h to tab!!!!
Suggest correction new What's this?
You can suggest a correction to this tab. Community and Mods will review your correction and vote to approve or reject it.
comments
We did not receive enough feedback on this tab! Please rate:
print report bad tab
1 2 3 4 5
2 comments total.
0 reply
EnDZYm3 217 wrote on April 21 2009, 09:46 pm

Nice tabbing, one of my favorite spooky kids songs,

0 reply
iambäst 139 wrote on August 7 2010, 07:31 am

yepp awsome tab awesome song

guest
You may want to rate the tab now too:
select rating
Please do not post tabs as comments. Select "correction" instead!