Oops, an error
Loading. Please wait.

Sweet Dreams Bass Tab

version 1
114,015 views 219 this week
5 commentsread comments
1 2 3 4 5
excellent!
x 24
add to favorites
launch autoscroll
font size
0
reset
guitar tuner
Autoscroll
slow
fast
+/-
esc
set tempo
stop
Help us to improve Ultimate-Guitar.com Take our survey!
×
Author
#----------------------------------PLEASE NOTE---------------------------------#
#This file is the author's own work and represents their interpretation of the #
#song. You may only use this file for private study, scholarship, or research. #
#------------------------------------------------------------------------------#

(Bassline)

Gtr I (E A D G) - 'Bajo'

   Slow Merol Q=93

   Gtr I
   Wx12
G|---------|
D|---------|
A|---------|
E|---------|

     Gtr I
     E E E E E E E E   E E E E E E E E  4x
G||------------------|------------------||
D||o-----------------|-----------------o||
A||o-3-3-3-3-3-3-3-3-|-----------------o||
E||------------------|-4-4-4-4-3-3-3-3--||

  8/8
   Gtr I
   E E E E E E E E   E E E E E E E E   E E E E E E E E
G|-----------------|-----------------|-----------------|
D|-----------------|-----------------|-----------------|
A|-----------------|---------------3-|-3-3-3-3-3-3-3-3-|
E|-4-4-4-4-4-4-4-4-|-4-4-4-4-4-3-3---|-----------------|

   Gtr I
   E E E E E E E E   E E E E E E E E   E E E E E E E E
G|-----------------|-----------------|-----------------|
D|-----------------|-----------------|-----------------|
A|-----------------|-----------------|-----------------|
E|-4-4-4-4-4-4-4-3-|-4-4-4-4-4-4-4-4-|-3-3-3-3-3-3-3-3-|

     Gtr I
     E E E E E E E E   E E E E E E E E 12x
G||------------------|------------------||
D||o-----------------|-----------------o||
A||o-3-3-3-3-3-3-3-3-|-----------------o||
E||------------------|-4-4-4-4-3-3-3-3--||

   Gtr I
   E E E E E E E E   E E E E E E E E   E E E E E E E E
G|-----------------|-----------------|-----------------|
D|-----------------|-----------------|-----------------|
A|-----------------|---------------3-|-3-3-3-3-3-3-3-3-|
E|-4-4-4-4-4-4-4-4-|-4-4-4-4-4-3-3---|-----------------|


   Gtr I
   E E E E E E E E   E E E E E E E E   E E E E E E E E
G|-----------------|-----------------|-----------------|
D|-----------------|-----------------|-----------------|
A|-----------------|-----------------|-----------------|
E|-4-4-4-4-4-4-4-3-|-4-4-4-4-4-4-4-4-|-3-3-3-3-3-3-3-3-|

     Gtr I
     E E E E S S E S S S S   E E E E S S E S S S S     3x
G||------------------------|---------------------------||
D||o-----------------------|--------------------------o||
A||o-3-3-3-3-3-3-3-3-3-3-3-|--------------------------o||
E||------------------------|-4-4-4-4-4-4-4-4-4-4-4-----||

   Gtr I
   E E E E E E E E   E E E H    E
G|-----------------|-----------------|
D|-----------------|-----------------|
A|-3-3-3-3-3-3-3-3-|-----------------|
E|-----------------|-4-4-4-----------|

     Gtr I
     E E E E E E E E   E E E E E E E E     4x
G||------------------|---------------------||
D||o-----------------|--------------------o||
A||o-3-3-3-3-3-3-3-3-|--------------------o||
E||------------------|-4-4-4-4-3-3-3-3-----||

    8/8
     Gtr I
     E E E E E E E E   E E E E E E E E     4x
G||------------------|---------------------||
D||o-----------------|--------------------o||
A||o-3-3-3-3-3-3-3-3-|--------------------o||
E||------------------|-4-4-4-4-3-3-3-3-----||

   Gtr I
   E E E E E E E E   E E E E E E E E   E E E E E E E E
G|-----------------|-----------------|--------------------|
D|-----------------|-----------------|--------------------|
A|-----------------|---------------3-|-3-3-3-3-3-3-3-3----|
E|-4-4-4-4-4-4-4-4-|-4-4-4-4-4-3-3---|--------------------|

   Gtr I
   E E E E E E E E   E E E E E E E E   E E E E E E E E
G|-----------------|-----------------|--------------------|
D|-----------------|-----------------|--------------------|
A|-----------------|-----------------|--------------------|
E|-4-4-4-4-4-4-4-3-|-4-4-4-4-4-4-4-4-|-3-3-3-3-3-3-3-3----|

   Gtr I
   E E E E E E E E   E E E E E E E E
G|-----------------|--------------------|
D|-----------------|--------------------|
A|-----------------|--------------------|
E|-4-4-4-4-4-4-4-4-|-3-3-3-3-3-3-3-3----|

   Gtr I
   E E E E E E E E   H    H      W          +W
G|-----------------|-----------|----------|--------*|
D|-----------------|-----------|----------|--------*|
A|-3-3-3-3-3-3-3-3-|-----------|-3--------|-(3)----*|
E|-----------------|-4----3----|----------|--------*|

************************************************************************

Duration Legend

W - whole; H - half; Q - quarter; E - 8th; S - 16th; T - 32nd; X - 64th; a - acciaccatura
+ - note tied to previous; . - note dotted; .. - note double dotted
Uncapitalized letters represent notes that are staccato (1/2 duration)
Irregular groupings are notated above the duration line
Duration letters will always appear directly above the note/fret number it represents the
duration for.  Duration letters with no fret number below them represent rests.  Multi-
bar rests are notated in the form Wxn, where n is the number of bars to rest for.  Low
melody durations appear below the staff

************************************************************************


| (n)  Ghost note
| o    on rhythm slash represents single note slash

************************************************************************
Suggest correction
What's this?
You can suggest a correction to this tab. Community and Mods will review your correction and vote to approve or reject it.
comments
print report bad tab
5 comments total. Showing first comments.
+1 reply
xBassgirl123x 48 wrote on November 14 2007, 07:43 am

a very ace tab! cheers it has helped alot

+1 reply
crazy basist 19 wrote on July 26 2010, 03:39 pm

great tab..thanks a lot!

0 reply
GabeHype 21 wrote on June 1 2013, 08:19 am

sweet thanks

guest
You may want to rate the tab now too:
select rating
Please do not post tabs as comments. Select "correction" instead!