Oops, an error
Loading. Please wait.

Sweet Dreams Tab

version 1
1,903,920 views 3,342 this week
116 commentsread comments
1 2 3 4 5
excellent!
x 458
add to favorites
launch autoscroll
font size
0
reset
how to read this tab
guitar tuner
Tab Pro tools
  • play this tab
  • loop segment
  • change instrument
  • show fretboard
  • metronome
×
Best way to learn
"Sweet Dreams"
Autoscroll
slow
fast
+/-
esc
set tempo
stop
Contributor
[Intro] 

e|---------------------------------|
B|---------------------------------|
G|---------------------------------|x2
D|-----5----6---5------------------|
A|-3-3---3----3---3----6/8-----5/6-|
E|------------------4-4-----3-3----|


[Verse 1]

e|---------------------------------|
B|---------------------------------|
G|---------------------------------|x7
D|-----5----6---5------------------|
A|-3-3---3----3---3----6/8-----5/6-|
E|------------------4-4-----3-3----|

e|----------------------------------|
B|----------------------------------|
G|----------------------------------|
D|-----5----6---5-----------5-5-5-5-|
A|-3-3---3----3---3----6/8--5-5-5-5-|
E|------------------4-4-----3-3-3-3-|


[Chorus]

e|---------------------------------------------------------------------|
B|---------------------------------------------------------------------|
G|-------------------------------5-5-5-5-5-5-5-5-5---------------------|
D|-6-6-6-6-6-6-6-6-6-6-6-6-6-5-5-5-5-5-5-5-5-5-5-5-6-6-6-6-6-6-6-6-6-5-|
A|-6-6-6-6-6-6-6-6-6-6-6-6-6-5-5-3-3-3-3-3-3-3-3-3-6-6-6-6-6-6-6-6-6-5-|
E|-4-4-4-4-4-4-4-4-4-4-4-4-4-3-3-------------------4-4-4-4-4-4-4-4-4-3-|

e|-----------------------------|
B|-----------------------------|
G|-----------------------------|
D|-6-6-6-6-6-6-6-6-5--5--5--5--|
A|-6-6-6-6-6-6-6-6-5--5--5--5--|
E|-4-4-4-4-4-4-4-4-3--3--3--3--|


[Interlude]

e|---------------------------------|
B|---------------------------------|
G|---------------------------------|x4
D|-----5----6---5------------------|
A|-3-3---3----3---3----6/8-----5/6-|
E|------------------4-4-----3-3----|


[Verse 2]

e|---------------------------------|
B|---------------------------------|
G|---------------------------------|x7
D|-----5----6---5------------------|
A|-3-3---3----3---3----6/8-----5/6-|
E|------------------4-4-----3-3----|

e|----------------------------------|
B|----------------------------------|
G|----------------------------------|
D|-----5----6---5-----------5-5-5-5-|
A|-3-3---3----3---3----6/8--5-5-5-5-|
E|------------------4-4-----3-3-3-3-|


[Solo 1] 

(for rhythm play chorus)

e|-------------------------------------------------------------|
B|--------4b5br4---------4b5br4----------4b5br4---------6--6b--|
G|-5-3-5----------5-3-5-----------5-3-5----------5-3-5---------|
D|-------------------------------------------------------------|
A|-------------------------------------------------------------|
E|-------------------------------------------------------------|

e|-------------------------------|
B|--------4b5br4---------4b5br4--|
G|-5-3-5----------5-3-5----------|
D|-------------------------------|
A|-------------------------------|
E|-------------------------------|


[Interlude]

e|-----------------------------------------|
B|-----------------------------------------|
G|-----------------------------------------|x3
D|-5-5-5-5-5-5-5-5-13-13-13-13-13-13-13-13-|
A|-3-3-3-3-3-3-3-3-11-11-11-11-11-11-11-11-|
E|-----------------------------------------|

e|-----------------------------------------|
B|-----------------------------------------|
G|-----------------------------------------|
D|-5-5-5-5-5-5-5-5-6-6-6-------------------|
A|-3-3-3-3-3-3-3-3-6-6-6-------------------|
E|-----------------4-4-4-------------------|


[Main Solo]

(for rhythm play verse)

e|--6---8--1---6--8--6-------------------|
B|----------------------7----------------|
G|-------------------------5-3-5---------|
D|---------------------------------3-----|
A|---------------------------------------|
E|---------------------------------------|

e|------------------------------------------|
B|------------------------------3--4--------|
G|--------5--------------5---5--------------|
D|---3--5----------3--3---------------------|
A|-----------3--5---------------------------|
E|------------------------------------------|

e|-----------------6---8--6---1---13---14--------|
B|----3---6----6--------------------------13-----|
G|-----------------------------------------------|
D|-----------------------------------------------|
A|-----------------------------------------------|
E|-----------------------------------------------|


[Verse 3]

e|---------------------------------|
B|---------------------------------|
G|---------------------------------|x7
D|-----5----6---5------------------|
A|-3-3---3----3---3----6/8-----5/6-|
E|------------------4-4-----3-3----|

e|----------------------------------|
B|----------------------------------|
G|----------------------------------|
D|-----5----6---5-----------5-5-5-5-|
A|-3-3---3----3---3----6/8--5-5-5-5-|
E|------------------4-4-----3-3-3-3-|


[Solo 3] 

e|-------------------------------------------------------------|
B|--------4b5br4---------4-4b5-----------4b5br4----------------|
G|-5-3-5----------5-3-5-----------5-3-5----------5-3-5---------|
D|-------------------------------------------------------------|
A|-------------------------------------------------------------|
E|-------------------------------------------------------------|

e|----------10b11br10------------10b11br10------------10b11br10------------10b11br10-|
B|-13-11-13------------13-11-13--------------13-11-13------------13-11-13------------|
G|-----------------------------------------------------------------------------------|
D|-----------------------------------------------------------------------------------|
A|-----------------------------------------------------------------------------------|
E|-----------------------------------------------------------------------------------|

e|-13~(let ring)---------------------------------------------------------------------|
B|-----------------------------------------------------------------------------------|
G|-----------------------------------------------------------------------------------|
D|-----------------------------------------------------------------------------------|
A|-----------------------------------------------------------------------------------|
E|-----------------------------------------------------------------------------------|


[Rhythm part for Solo 3]

e|---------------------------------------------------------------------|
B|---------------------------------------------------------------------|
G|-------------------------------5-5-5-5-5-5-5-5-5---------------------|
D|-6-6-6-6-6-6-6-6-6-6-6-6-6-5-5-5-5-5-5-5-5-5-5-5-6-6-6-6-6-6-6-6-6-5-|
A|-6-6-6-6-6-6-6-6-6-6-6-6-6-5-5-3-3-3-3-3-3-3-3-3-6-6-6-6-6-6-6-6-6-5-|
E|-4-4-4-4-4-4-4-4-4-4-4-4-4-3-3-------------------4-4-4-4-4-4-4-4-4-3-|

e|-----------------------------------------------------------------|
B|-----------------------------------------------------------------|
G|-----------------------------------------------------------------|
D|-6-6-6-6-6-6-6-6-5-5-5-5-5-5-5-5-6-6-6-6-6-6-6-6-5-5-5-5-5-5-5-5-|
A|-6-6-6-6-6-6-6-6-5-5-5-5-5-5-5-5-6-6-6-6-6-6-6-6-5-5-5-5-5-5-5-5-|
E|-4-4-4-4-4-4-4-4-3-3-3-3-3-3-3-3-4-4-4-4-4-4-4-4-3-3-3-3-3-3-3-3-|

e|---------------------------------------|
B|---------------------------------------|
G|-5-5-5-5-5-5-5-5-5---------------------|
D|-5-5-5-5-5-5-5-5-5-6---------6---------|
A|-3-3-3-3-3-3-3-3-3-6---------6---------|
E|-------------------4---------3---------|


[End]

e|---------------------------------------|
B|-3-------------------------------------|
G|-5-------------------------------------|
D|-5-------------------------------------|
A|-3-------------------------------------|
E|---------------------------------------|


***************************

/   slide up
b   bend
br  bend release
~   vibrato

***************************
comments
print report bad tab
116 comments total. Showing first comments.
+3 reply
VaYnE wrote on January 23 2002, 12:00 am

these are the best sweet dreems tabs i have ever seen trust me all the rest are shit!

+3 reply
illoyd-d wrote on February 13 2002, 12:00 am

PERFECT

+1 reply
goth_thug wrote on February 22 2002, 12:00 am

Dude, way to go. Manson rox, especially this song.

I want to post or [tab]
guest
You may want to rate the tab now too:
select rating
Please do not post tabs as comments. Select "correction" instead!