Oops, an error
Loading. Please wait.

Sweet Dreams Tab

version 1
1,893,411 views 2,581 this week
116 commentsread comments
1 2 3 4 5
excellent!
x 457
add to favorites
launch autoscroll
font size
0
reset
how to read this tab
guitar tuner
Tab Pro tools
  • play this tab
  • loop segment
  • change instrument
  • show fretboard
  • metronome
×
Best way to learn
"Sweet Dreams"
Autoscroll
slow
fast
+/-
esc
set tempo
stop
Contributor
[Main Riff] 

e|---------------------------------------------|
B|---------------------------------------------|
G|---------------------------------------------|
D|-------5----6---5----------------------------|
A|---3-3---3----3---3----6/8----5/6------------|
E|--------------------4-4-----3-3--------------|


[Riff2]

e|------------------------------------|
B|------------------------------------|
G|----5-5-5-5-5-5-5-------------------|
D|----5-5-5-5-5-5-5---6-6--5----------|
A|----3-3-3-3-3-3-3---6-6--5----------|
E|-6------------------4-4--3----------|


[Riff 3]

e|------------------------------------------------------------------------------------|
B|------------------------------------------------------------------------------------|
G|--------------------------------5-5-5-5-5-5-5-5-5-----------------------------------|
D|--6-6-6-6-6-6-6-6-6-6-6-6-6--5--5-5-5-5-5-5-5-5-5----6-6-6-6-6-6-6-6-6---5----------|
A|--6-6-6-6-6-6-6-6-6-6-6-6-6--5--3-3-3-3-3-3-3-3-3----6-6-6-6-6-6-6-6-6---5----------|
E|--4-4-4-4-4-4-4-4-4-4-4-4-4--3-----------------------4-4-4-4-4-4-4-4-4---3----------|

e|-----------------------------------------------------------------------|
B|-----------------------------------------------------------------------|
G|-----------------------------------------------------------------------|
D|---6-6-6-6-6-6-6-6-----5-5-5-5-5-5-5-5-5-------------------------------|
A|---6-6-6-6-6-6-6-6-----5-5-5-5-5-5-5-5-5-------------------------------|
E|---4-4-4-4-4-4-4-4-----3-3-3-3-3-3-3-3-3-------------------------------|

e|-------------------------------------------------------|
B|-------------------------------------------------------|
G|-------------------------------------------------------|
D|----------5---6----------------------------------------|
A|------3-3---3---3-------6/8-------5/6------------------|
E|--------------------4-4------3-3-----------------------|

e|----------------|    e|----------------------|
B|----------------|    B|----------------------|
G|-----------3--3-|    G|---------3--3---------|
D|--5--3--5-------| x2 D|-5--3--5--------5-----|
A|----------------|    A|----------------------|
E|----------------|    E|----------------------|


[Solo]

e|--6---8--1---6--8--6-------------------|
B|----------------------7----------------|
G|-------------------------5-3-5---------|
D|---------------------------------3-----|
A|---------------------------------------|
E|---------------------------------------|

e|------------------------------------------|
B|------------------------------3--4--------|
G|--------5--------------5---5--------------|
D|---3--5----------3--3---------------------|
A|-----------3--5---------------------------|
E|------------------------------------------|

e|-----------------6---8--6---1---13---14--------|
B|----3---6----6--------------------------13-----|
G|-----------------------------------------------|
D|-----------------------------------------------|
A|-----------------------------------------------|
E|-----------------------------------------------|

***************************
/ slide up
***************************
comments
print report bad tab
116 comments total. Showing first comments.
+3 reply
VaYnE wrote on January 23 2002, 12:00 am

these are the best sweet dreems tabs i have ever seen trust me all the rest are shit!

+3 reply
illoyd-d wrote on February 13 2002, 12:00 am

PERFECT

+1 reply
goth_thug wrote on February 22 2002, 12:00 am

Dude, way to go. Manson rox, especially this song.

I want to post or [tab]
guest
You may want to rate the tab now too:
select rating
Please do not post tabs as comments. Select "correction" instead!