Oops, an error
Loading. Please wait.
We have an official Sweet Dreams tab made by UG professional guitarists. Check out the tab »
×
49,249 views 27 this week
15 commentsread comments
1 2 3 4 5
x 15
add to favorites
×
Save as Personal and add changes to this tab that will be seen only by you. Learn more ›
×
You can save this tab as Personal to edit and correct it or add notes. All changes will be seen only by you. Learn more »
save as personal
new!
launch autoscroll
font size
0
reset
how to read this tab
guitar tuner
backing track
0:00
0:00
Autoscroll
slow
fast
+/-
esc
set tempo
stop
Q=100
(4/4)
(Gtr 1)
     E E E E E E E E   E E E E E E E E  (6x)
e|------------------|------------------|
B|o-----------------|-----------------o|
G|------------------|------------------|
D|------5---6---5---|------------------|
A|o-3-3---3---3---3-|-----6-8-----5-6-o|
E|------------------|-4-4-----3-3------|

     E E E E E E E E   E E E E E E E E
e|------------------|------------------|
B|o-----------------|-----------------o|
G|------------------|------------------|
D|------5---6---5---|------------------|
A|o-3-3---3---3---3-|-----6h8-----5h6-o|
E|------------------|-4-4-----3-3------|

(Gtr 2)(Gtr3)
    E E E E E E E E   E E E E E E E E
G|------------------|------------------|
D|o-----------------|-----------------o|
A|o-3-3-3-3-3-3-3-3-|-----------------o|
E|------------------|-4-4-4-4-3-3-3-3--|

(Gtr 1)
  E E E E E E E E   E E E E E E E E
e|------------------|------------------|
B|o-----------------|-----------------o|
G|------------------|------------------|
D|------5---6---5---|------------------|
A|o-3-3---3---3---3-|-----6h8-----5h6-o|
E|------------------|-4-4-----3-3------|

(Gtr 2)
    W                 H       H
e|------------------|------------------|
B|o-----------------|-----------------o|
G|------------------|------------------|
D|--5---------------|------------------|
A|o-3---------------|-6-------5-------o|
E|------------------|-4-------3--------|

(Gtr 3)
  E E E E E E E E   E E E E E E E E
G|------------------|------------------|
D|o-----------------|-----------------o|
A|o-3-3-3-3-3-3-3-3-|-----------------o|
E|------------------|-4-4-4-4-3-3-3-3--|

(8/8)
(Gtrs 1, 2)
   E E E E E E E E   E E E E E E E E   E E E E E E E E
e|-----------------|-----------------|-----------------|
B|-----------------|-----------------|-----------------|
G|-----------------|---------------5-|-5-5-5-5-5-5-5-5-|
D|-6-6-6-6-6-6-6-6-|-6-6-6-6-6-5-5-5-|-5-5-5-5-5-5-5-5-|
A|-6-6-6-6-6-6-6-6-|-6-6-6-6-6-5-5-3-|-3-3-3-3-3-3-3-3-|
E|-4-4-4-4-4-4-4-4-|-4-4-4-4-4-3-3---|-----------------|

(Gtr 3)
   E E E E E E E E   E E E E E E E E   E E E E E E E E
G|-----------------|-----------------|-----------------|
D|-----------------|-----------------|-----------------|
A|-----------------|---------------3-|-3-3-3-3-3-3-3-3-|
E|-4-4-4-4-4-4-4-4-|-4-4-4-4-4-3-3---|-----------------|

(Gtrs 1, 2)
   E E E E E E E E   E E E E E E E E   E E E E E E E E
e|-----------------|-----------------|-----------------|
B|-----------------|-----------------|-----------------|
G|-----------------|-----------------|-----------------|
D|-6-6-6-6-6-6-6-5-|-6-6-6-6-6-6-6-6-|-5-5-5-5-5-5-5-5-|
A|-6-6-6-6-6-6-6-5-|-6-6-6-6-6-6-6-6-|-5-5-5-5-5-5-5-5-|
E|-4-4-4-4-4-4-4-3-|-4-4-4-4-4-4-4-4-|-3-3-3-3-3-3-3-3-|

(Gtr 3)
   E E E E E E E E   E E E E E E E E   E E E E E E E E
G|-----------------|-----------------|-----------------|
D|-----------------|-----------------|-----------------|
A|-----------------|-----------------|-----------------|
E|-4-4-4-4-4-4-4-3-|-4-4-4-4-4-4-4-4-|-3-3-3-3-3-3-3-3-|

(Gtrs 1, 2)
    E E E E E E E E   E E E E E E E E  (4x)
e|------------------|------------------|
B|o-----------------|-----------------o|
G|------------------|------------------|
D|------5---6---5---|------------------|
A|o-3-3---3---3---3-|-----6h8-----5h6-o|
E|------------------|-4-4-----3-3------|

(Gtrs 5, 6)
    W                 H       H        (4x)
e|------------------|------------------|
B|o-----------------|-----------------o|
G|------------------|------------------|
D|--5---------------|------------------|
A|o-3---------------|-6-------5-------o|
E|------------------|-4-------3--------|

(Gtr 3)
    E E E E E E E E   E E E E E E E E  (4x)
G|------------------|------------------|
D|o-----------------|-----------------o|
A|o-3-3-3-3-3-3-3-3-|-----------------o|
E|------------------|-4-4-4-4-3-3-3-3--|

(8/8)
     Gtrs I, VI
     E E E E E E E E   E E E E E E E E  (4x)
e|------------------|------------------|
B|o-----------------|-----------------o|
G|------------------|------------------|
D|------5---6---5---|------------------|
A|o-3-3---3---3---3-|-----6h8-----5h6-o|
E|------------------|-4-4-----3-3------|

(Gtr 6)
    W                 H       H        (4x)
e|------------------|------------------|
B|o-----------------|-----------------o|
G|------------------|------------------|
D|--5---------------|------------------|
A|o-3---------------|-6-------5-------o|
E|------------------|-4-------3--------|

(Gtr 3)
    E E E E E E E E   E E E E E E E E  (4x)
G|------------------|------------------|
D|o-----------------|-----------------o|
A|o-3-3-3-3-3-3-3-3-|-----------------o|
E|------------------|-4-4-4-4-3-3-3-3--|

(Gtrs 1, 6)
     E E E E E E E E   E E E E E E E E  (4x)
e|------------------|------------------|
B|o-----------------|-----------------o|
G|------------------|------------------|
D|------5---6---5---|------------------|
A|o-3-3---3---3---3-|-----6h8-----5h6-o|
E|------------------|-4-4-----3-3------|

(Gtrs 2, 5, 6)
    W                 H       H        (4x)
e|------------------|------------------|
B|o-----------------|-----------------o|
G|------------------|------------------|
D|--5---------------|------------------|
A|o-3---------------|-6-------5-------o|
E|------------------|-4-------3--------|

(Gtr 3)
    E E E E E E E E   E E E E E E E E  (4x)
G|------------------|------------------|
D|o-----------------|-----------------o|
A|o-3-3-3-3-3-3-3-3-|-----------------o|
E|------------------|-4-4-4-4-3-3-3-3--|

(8/8)
(Gtr 2)
   Q   E Q   Q       +E    Q   E Q   Q       +E    Q   E Q   Q       +E
e|-----------------------|-----------------------|-----------------------|
B|-----------3b3.5r==(3)-|-----------3b3.5r==(3)-|-----------7b7.5r==(7)-|
G|-5---3-5---------------|-5---3-5---------------|-5---3-5---------------|
D|-----------------------|-----------------------|-----------------------|
A|-----------------------|-----------------------|-----------------------|
E|-----------------------|-----------------------|-----------------------|

(Gtrs 1, 5, 6)
   E E E E E E     E  E    E E E E E E     E  E    E E E E E E     E  E
e|-----------------------|-----------------------|-----------------------|
B|-----------------------|-----------------------|-----------------------|
G|-----------------------|--------------------5--|-5-5-5-5-5-5-----5--5--|
D|-6-6-6-6-6-6-----6--6--|-6-6-6-6-6-5-----5--5--|-5-5-5-5-5-5-----5--5--|
A|-6-6-6-6-6-6-----6--6--|-6-6-6-6-6-5-----5--3--|-3-3-3-3-3-3-----3--3--|
E|-4-4-4-4-4-4-----4--4--|-4-4-4-4-4-3-----3-----|-----------------------|

(Gtr 3)
   E E E E E E     E  E    E E E E E E     E  E    E E E E E E     E  E
G|-----------------------|-----------------------|-----------------------|
D|-----------------------|-----------------------|-----------------------|
A|-----------------------|--------------------3--|-3-3-3-3-3-3-----3--3--|
E|-4-4-4-4-4-4-----4--4--|-4-4-4-4-4-3-----3-----|-----------------------|

(8/8)
(Gtrs 2, 5, 6)
   Q   E Q   Q       +E    Q   E Q   Q       +E    Q   E Q   Q       +E
e|-----------------------|-----------------------|-----------------------|
B|-----------3b3.5r==(3)-|-----------3b3.5r==(3)-|-----------3b3.5r==(3)-|
G|-5---3-5---------------|-5---3-5---------------|-5---3-5---------------|
D|-----------------------|-----------------------|-----------------------|
A|-----------------------|-----------------------|-----------------------|
E|-----------------------|-----------------------|-----------------------|

(Gtrs 1, 2, 5, 6)
   E E E E E E     E  E    E E E E E E     E  E    E E E E E E     E  E
e|-----------------------|-----------------------|-----------------------|
B|-----------------------|-----------------------|-----------------------|
G|-----------------------|-----------------------|-----------------------|
D|-6-6-6-6-6-6-----6--5--|-6-6-6-6-6-6-----6--6--|-5-5-5-5-5-5-----5--5--|
A|-6-6-6-6-6-6-----6--5--|-6-6-6-6-6-6-----6--6--|-5-5-5-5-5-5-----5--5--|
E|-4-4-4-4-4-4-----4--3--|-4-4-4-4-4-4-----4--4--|-3-3-3-3-3-3-----3--3--|

(Gtr 3)
   E E E E E E     E  E    E E E E E E     E  E    E E E E E E     E  E
G|-----------------------|-----------------------|-----------------------|
D|-----------------------|-----------------------|-----------------------|
A|-----------------------|-----------------------|-----------------------|
E|-4-4-4-4-4-4-----4--3--|-4-4-4-4-4-4-----4--4--|-3-3-3-3-3-3-----3--3--|

(8/8)
(Gtrs 2, 6)
     W                       W                      (4x)
e|------------------------|------------------------|
B|o-----------------------|-----------------------o|
G|------------------------|------------------------|
D|------------------------|------------------------|
A|o-----------------------|-----------------------o|
E|------------------------|------------------------|

(Gtr 3)
    E E E E S S E S S S S   E E E E S S E S S S S  (4x)
G|------------------------|------------------------|
D|o-----------------------|-----------------------o|
A|o-3-3-3-3-3-3-3-3-3-3-3-|-----------------------o|
E|------------------------|-4-4-4-4-4-4-4-4-4-4-4--|

(Gtrs 1, 2, 6)
   W                 Q   H     E
e|-----------------|---------------|
B|-----------------|---------------|
G|-5---------------|---------------|
D|-5---------------|-6-------------|
A|-3---------------|-6-------------|
E|-----------------|-4-------------|

(Gtr 3)
   E E E E E E E E   E E E H     E
G|-----------------|---------------|
D|-----------------|---------------|
A|-3-3-3-3-3-3-3-3-|---------------|
E|-----------------|-4-4-4---------|

(4/4)
(Gtr 2)
   Q.     Q.      E E   Q.     E Q       +Q
e|-6------8------11-6-|-8------6--------------|
B|--------------------|----------7b7.5r==(7)--|
G|--------------------|-----------------------|
D|--------------------|-----------------------|
A|--------------------|-----------------------|
E|--------------------|-----------------------|

(Gtrs 1, 4, 5, 6)
   E  E E E  E E  E E   E  E E E E     E  E E
e|--------------------|-----------------------|
B|--------------------|-----------------------|
G|--------------------|-----------------------|
D|------5----6----5---|-----------------------|
A|-3--3---3----3----3-|------6h8----------5h6-|
E|--------------------|-4--4-----3-----3------|

(Gtr 3)
   E  E E E  E E  E E   E  E E E E     E  E E
G|--------------------|-----------------------|
D|-5--5-5-5--5-5--5-5-|-----------------------|
A|-3--3-3-3--3-3--3-3-|-6--6-6-6-5-----5--5-5-|
E|--------------------|-4--4-4-4-3-----3--3-3-|

(Gtr 2)
   Q   E Q   Q       +E    E     +E  E E E E E E
e|-----------------------|---------------------------|
B|-----------------------|---------------------------|
G|-5---3-5---------------|-------------5-------------|
D|-----------3b3.5r==(3)-|-3b3.5r(3)-5-------3-3b3.5-|
A|-----------------------|---------------3-5---------|
E|-----------------------|---------------------------|

(Gtrs 1, 5, 6)
   E E E E E E     E  E    E      E  E E E E E E
e|-----------------------|---------------------------|
B|-----------------------|---------------------------|
G|-----------------------|---------------------------|
D|-----5---6-------5-----|---------------------------|
A|-3-3---3---3--------3--|-----------6h8-----5h6-----|
E|-----------------------|-4------4------3-3---------|

(Gtr 3)
   E E E E E E     E  E    E      E  E E E E E E
G|-----------------------|---------------------------|
D|-5-5-5-5-5-5-----5--5--|---------------------------|
A|-3-3-3-3-3-3-----3--3--|-6------6--6-6-5-5-5-5-----|
E|-----------------------|-4------4--4-4-3-3-3-3-----|

(Gtr 2)
   E E E H           H       Q       +Q
e|-----------------|----------------------|
B|-----3-4---------|-3-------6b6.5r==(6)--|
G|-5-5-------------|----------------------|
D|-----------------|----------------------|
A|-----------------|----------------------|
E|-----------------|----------------------|

(Gtrs 1, 5, 6)
   E E E E E E E E   E E E E E     E  E E
e|-----------------|----------------------|
B|-----------------|----------------------|
G|-----------------|----------------------|
D|-----5---6---5---|----------------------|
A|-3-3---3---3---3-|-----6h8----------5h6-|
E|-----------------|-4-4-----3-----3------|

(Gtr 3)
   E E E E E E E E   E E E E E     E  E E
G|-----------------|----------------------|
D|-5-5-5-5-5-5-5-5-|----------------------|
A|-3-3-3-3-3-3-3-3-|-6-6-6-6-5-----5--5-5-|
E|-----------------|-4-4-4-4-3-----3--3-3-|

(Gtr 2)
   Q   +E  E +E  E  Q      H        Q    Q
e|-6---(6)-8-(8)-6-11---|-13-------14---14---|
B|----------------------|--------------------|
G|----------------------|--------------------|
D|----------------------|--------------------|
A|----------------------|--------------------|
E|----------------------|--------------------|

(Gtrs 1, 5, 6)
   E E  E  E  E  E  E E    E E E E  E E  E E
e|----------------------|--------------------|
B|----------------------|--------------------|
G|----------------------|--------------------|
D|------5-----6-----5---|--------------------|
A|-3-3-----3-----3----3-|------6h8-------5h6-|
E|----------------------|--4-4------3-3------|

(Gtr 3)
   E E  E  E  E  E  E E    E E E E  E E  E E
G|----------------------|--------------------|
D|-5-5--5--5--5--5--5-5-|--------------------|
A|-3-3--3--3--3--3--3-3-|--6-6-6-6--5-5--5-5-|
E|----------------------|--4-4-4-4--3-3--3-3-|

(2/2)
(Gtr 2)
    H               W
e|---------------|-------------|
B|-13------------|-------------|
G|---------------|-------------|
D|---------------|-------------|
A|---------------|-------------|
E|---------------|-------------|

(Gtr 4)
    E  H..          H     H
e|---------------|-------------|
B|-20------------|-------------|
G|----21---------|-------------|
D|---------------|-18----17----|
A|---------------|-------------|
E|---------------|-------------|

(Gtr 4)
      E  H..          H     H     (3x)
e|----------------|--------------|
B|o-20------------|-------------o|
G|-----21---------|--------------|
D|----------------|-18----17-----|
A|o---------------|-------------o|
E|----------------|--------------|

(8/8)
(Gtrs 1, 2, 5, 6)
     E E E E E E E E   E E E E E E E E  (4x)
e|------------------|------------------|
B|o-----------------|-----------------o|
G|------------------|------------------|
D|------5---6---5---|------------------|
A|o-3-3---3---3---3-|-----6-8-----5-6-o|
E|------------------|-4-4-----3-3------|

(Gtrs 2, 5, 6)
    W                 H       H        (4x)
e|------------------|------------------|
B|o-----------------|-----------------o|
G|------------------|------------------|
D|--5---------------|------------------|
A|o-3---------------|-6-------5-------o|
E|------------------|-4-------3--------|

(Gtr 3)
    E E E E E E E E   E E E E E E E E  (4x)
G|------------------|------------------|
D|o-----------------|-----------------o|
A|o-3-3-3-3-3-3-3-3-|-----------------o|
E|------------------|-4-4-4-4-3-3-3-3--|

(Gtrs 2, 5, 6)
   Q   E Q   Q       +E    Q   E Q   Q       +E    Q   E Q   Q       +E
e|-----------------------|-----------------------|-----------------------|
B|-----------3b3.5r==(3)-|-----------3b3.5r==(3)-|-----------7b7.5r==(7)-|
G|-5---3-5---------------|-5---3-5---------------|-5---3-5---------------|
D|-----------------------|-----------------------|-----------------------|
A|-----------------------|-----------------------|-----------------------|
E|-----------------------|-----------------------|-----------------------|

(Gtrs 1, 4, 5, 6)
   E E E E E E     E  E    E E E E E E     E  E    E E E E E E     E  E
e|-----------------------|-----------------------|-----------------------|
B|-----------------------|-----------------------|-----------------------|
G|-----------------------|--------------------5--|-5-5-5-5-5-5-----5--5--|
D|-6-6-6-6-6-6-----6--6--|-6-6-6-6-6-5-----5--5--|-5-5-5-5-5-5-----5--5--|
A|-6-6-6-6-6-6-----6--6--|-6-6-6-6-6-5-----5--3--|-3-3-3-3-3-3-----3--3--|
E|-4-4-4-4-4-4-----4--4--|-4-4-4-4-4-3-----3-----|-----------------------|

(Gtr 3)
   E E E E E E     E  E    E E E E E E     E  E    E E E E E E     E  E
G|-----------------------|-----------------------|-----------------------|
D|-----------------------|-----------------------|-----------------------|
A|-----------------------|--------------------3--|-3-3-3-3-3-3-----3--3--|
E|-4-4-4-4-4-4-----4--4--|-4-4-4-4-4-3-----3-----|-----------------------|

(Gtrs 2, 4, 5)
      Q    E  Q    Q         +E
e|------------------------------|
B|o--------------15b15.5r==(15)-|
G|--17---15-17------------------|
D|------------------------------|
A|o-----------------------------|
E|------------------------------|

(Gtrs 1, 4, 5, 6)
     E E  E  E E  E      E   E
e|------------------------------|
B|o-----------------------------|
G|------------------------------|
D|---6-6--6--6-6--6------6---5--|
A|o--6-6--6--6-6--6------6---5--|
E|---4-4--4--4-4--4------4---3--|

(Gtr 3)
     E E  E  E E  E      E   E
G|------------------------------|
D|o-----------------------------|
A|o-----------------------------|
E|---4-4--4--4-4--4------4---3--|

    Q    E  Q    Q         +E     Q    E  Q    Q         +E
e|-----------------------------|------------------------------|
B|--------------15b15.5r==(15)-|--------------15b15.5r==(15)-o|
G|-17---15-17------------------|-17---15-17-------------------|
D|-----------------------------|------------------------------|
A|-----------------------------|-----------------------------o|
E|-----------------------------|------------------------------|

    E E  E  E E  E      E   E     E E  E  E E  E      E   E
e|-----------------------------|------------------------------|
B|-----------------------------|-----------------------------o|
G|-----------------------------|------------------------------|
D|--6-6--6--6-6--6------6---6--|--5-5--5--5-5--5------5---5---|
A|--6-6--6--6-6--6------6---6--|--5-5--5--5-5--5------5---5--o|
E|--4-4--4--4-4--4------4---4--|--3-3--3--3-3--3------3---3---|

    E E  E  E E  E      E   E     E E  E  E E  E      E   E
G|-----------------------------|------------------------------|
D|-----------------------------|-----------------------------o|
A|-----------------------------|-----------------------------o|
E|--4-4--4--4-4--4------4---4--|--3-3--3--3-3--3------3---3---|

(4/4)
(Gtrs 2, 5, 6)
    W                 H    H      W          +W
e|------------------|-----------|----------|--------*|
B|-20---------------|-----------|----------|--------*|
G|------------------|-----------|-5--------|-(5)----*|
D|------------------|-6----5----|----------|--------*|
A|------------------|-----------|----------|--------*|
E|------------------|-----------|----------|--------*|

(Gtrs 1, 4, 5, 6)
    E E E E E E E E   H    H      W          +W
e|------------------|-----------|----------|--------*|
B|------------------|-----------|----------|--------*|
G|--5-5-5-5-5-5-5-5-|-----------|-5--------|-(5)----*|
D|--5-5-5-5-5-5-5-5-|-6----5----|-5--------|-(5)----*|
A|--3-3-3-3-3-3-3-3-|-6----5----|-3--------|-(3)----*|
E|------------------|-4----3----|----------|--------*|

(Gtr 3)
    E E E E E E E E   H    H      W          +W
G|------------------|-----------|----------|--------*|
D|------------------|-----------|----------|--------*|
A|--3-3-3-3-3-3-3-3-|-----------|-3--------|-(3)----*|
E|------------------|-4----3----|----------|--------*|


************************************

| h    Hammer-on
| b    Bend
| (n)  Ghost note
| *    Natural harmonic

************************************
Suggest correction
comments
print report bad tab
15 comments total. Showing first comments.
0 reply
Craig01 20 Jan 14, 2005 07:00 PM

thats phat

0 reply
Lee Luck 10 Dec 19, 2005 10:16 AM

yupp, I agree, kinda skilled to tab five guitars at the same time ;)

0 reply
Dr FeelGood 15 Jan 07, 2006 04:30 PM

holy shit thats good

guest
Wanna post a correction for this tab? Suggest correction