Oops, an error
Loading. Please wait.

Tainted Love bass

version 2
version 2

Whole song

Interactive

1,822 views 1 this week
3 commentsread comments
1 2 3 4 5
x 3
add to favorites
×
Save as Personal and add changes to this tab that will be seen only by you. Learn more ›
×
You can save this tab as Personal to edit and correct it or add notes. All changes will be seen only by you. Learn more »
launch autoscroll
font size
0
reset
guitar tuner
backing track
0:00
0:00
edit
Autoscroll
slow
fast
+/-
esc
set tempo
stop
Author
Song: Tainted Love
Band: Marilyn Manson
Album: The Golden Age Of Grotesque
Bassist: Tim Skold

This is my first tab and I'm only 14, but I think it sounds pretty right

Standard tuning (E,A,D,G)

Intro (00:07)
G|-----------|
D|-----------|
A|-----------|
E|-33-3-3-333| (x8)

Verse (00:33) (Played when the keyboard is are playing)

Sometimes i feel like i've got to Run away I've got to
G|---------------------------------------|--------------------|
D|---------------------------------------|--------------------|
A|---------------------------------------|--------------------|
E|-----------------------------33--------|-------------33-----|

   Get away from the pain you drive into the heart of me, The love we share
G|------------------------------------------------------|------------------|
D|------------------------------------------------------|------------------|
A|------------------------------------------------------|------------------|
E|--------------------------33--------------------------|------33----------|

  Seems to go no where, I've lost my lights
G|--------------------|-------------------|
D|--------------------|-------------------|
A|--------------------|-------------------|
E|--------33----------|-------33----------|

I just sometimes can't sleep at night

Chorous (01:00)

UPDATED
       
G|----------------------|---------------------|----------------------------|
D|----------------------|---------------------|----------------------------|
A|----------------------|33333-3-33-22222-2-22|11111-1-11------------------|
E|33333-3-33-22222-2-22-|---------------------|------------33333-3-33------|

 
G|---------------------------------|
D|---------------------------------|
A|-----------33333-3-33-22222-2-22-|
E|22222-2-22-----------------------|

Verse x9
chorous x1
Verse x4
(Don't play while he sings "don't touch me please I cannot stand the way you tease" but 
this play verse once)

    Touch me baby, Tainted love.
G|-------------|--------------|
D|-------------|--------------|
A|-------------|--------------|
E|33-----------|--------------| x3

Chorus x1
Verse x4

            
            
Suggest correction
Creating personal tab
Creating personal tab
You can edit any tab online and save it as your Personal.

You can edit, replace or remove any tab part or add personal notes – all changes will be seen only by you.

Personal tabs can be accessed anytime from any device, even offline.
Learn more »
Give kudos to tab author, rate the tab!
1 2 3 4 5
comments
print report bad tab
3 comments total.
0 reply
hendrixtheman 10 Jun 05, 2007 04:27 AM

man,Im sorry but thats totaly wrong,look at the other tab

0 reply
mathiaes 235 Jun 05, 2007 09:32 AM

that's just GG listen to the song..I've figured out that the chouros is wrong, but that other one is just not right if you listen in the chorus you can hear that it's not just all G's

0 reply
asthenia44 86 Apr 07, 2010 05:22 PM

This tab isn't very accurate nice try man.

guest
You may want to rate the tab now too:
select rating
Wanna post a correction for this tab? Suggest correction