Oops, an error
Loading. Please wait.

The Fight Song Bass Tab

version 5
version 5

Whole song

13 views 1 this week
no commentswrite comment
1 2 3 4 5
3 more votes to show rating
add to favorites
launch autoscroll
font size
0
reset
guitar tuner
Autoscroll
slow
fast
+/-
esc
set tempo
stop
Help us to improve Ultimate-Guitar.com Take our survey!
×
Author
Difficulty
novice
About this tab version
Easy to read, and correct notes. Was this info helpful? Yes No
[Intro]

G|-------------------|-------------------|-------------------|-------------------|
D|-------------------|-------------------|-------------------|-------------------|
A|------------0-0-0--|------------0-0-0--|------------0-0-0--|-------------------|
E|--2-2-0-0-2--------|--2-2-0-0-2--------|--2-2-0-0-2--------|--2-2-0-0-2-0-0----| X2


[Verse 1]

(No Bass)


[Chorus]

G|-------------------|-------------------|-------------------|-------------------|
D|-------------------|-------------------|-------------------|-------------------|
A|------------0-0-0--|------------0-0-0--|------------0-0-0--|-------------------|
E|--2-2-0-0-2--------|--2-2-0-0-2--------|--2-2-0-0-2--------|--2-2-0-0-2-0-0----|

G|-------------------|-------------------|-------------------|-------------------|
D|-------------------|-------------------|-------------------|-------------------|
A|------------0-0-0--|------------0-0-0--|------------0-0-0--|-------------------|
E|--2-2-0-0-2--------|--2-2-0-0-2--------|--2-2-0-0-2--------|--2-2-0-0-2-0-0----|

G|-------------------|-------------------|-------------------|-------------------|
D|-------------------|-------------------|-------------------|-------------------|
A|-------------------|-------------------|-------------------|-------------------|
E|--7-7-7-7-7-7-7-7--|--5-5-5-5-5-5-5-5--|--7-7-7-7-7-7-7-7--|--5-5-5-5-5-5-5-5--|

G|-------------------|-------------------|-------------------|-------------------|
D|-------------------|-------------------|-------------------|-------------------|
A|--5-5-5-5-5-5-5-5--|-------------------|-------------------|-------------------|
E|-------------------|--7-7-7-7-7-7-7-7--|--5-5-5-5-5-5-5-5--|--0-0-0-0-0-0-0-0--|

G|-------------------|-------------------|-------------------|-------------------|
D|-------------------|-------------------|-------------------|-------------------|
A|------------0-0-0--|------------0-0-0--|------------0-0-0--|-------------------|
E|--2-2-0-0-2--------|--2-2-0-0-2--------|--2-2-0-0-2--------|--2-2-0-0-2-0-0----|


[Verse 2]

(No Bass)


[Chorus]

G|-------------------|-------------------|-------------------|-------------------|
D|-------------------|-------------------|-------------------|-------------------|
A|-------------------|-------------------|-------------------|-------------------|
E|--7-7-7-7-7-7-7-7--|--5-5-5-5-5-5-5-5--|--7-7-7-7-7-7-7-7--|--5-5-5-5-5-5-5-5--|

G|-------------------|-------------------|-------------------|-------------------|
D|-------------------|-------------------|-------------------|-------------------|
A|--5-5-5-5-5-5-5-5--|-------------------|-------------------|-------------------|
E|-------------------|--7-7-7-7-7-7-7-7--|--5-5-5-5-5-5-5-5--|--0-0-0-0-0-0-0-0--|

G|-------------------|-------------------|-------------------|-------------------|
D|-------------------|-------------------|-------------------|-------------------|
A|------------0-0-0--|------------0-0-0--|------------0-0-0--|-------------------|
E|--2-2-0-0-2--------|--2-2-0-0-2--------|--2-2-0-0-2--------|--2-2-0-0-2-0-0----|

G|-------------------|-------------------|-------------------|-------------------|
D|-------------------|-------------------|-------------------|-------------------|
A|------------0-0-0--|------------0-0-0--|------------0-0-0--|-------------------|
E|--2-2-0-0-2--------|--2-2-0-0-2--------|--2-2-0-0-2--------|--2-2-0-0-2-0-0----|

G|-------------------|-------------------|-------------------|-------------------|
D|-------------------|-------------------|-------------------|-------------------|
A|--3-3-3-3-3-3-3/5--|--0-0-0-0-0-0-0-0--|--3-3-3-3-3-3-3/5--|--0-0-0-0-0-0-0-0--|
E|-------------------|-------------------|-------------------|-------------------|

G|-------------------|-------------------|-------------------|-------------------|
D|-------------------|-------------------|-------------------|-------------------|
A|--3-3-3-3-3-3-3/5--|--0-0-0-0-0-0-0-0--|--3-3-3-3-3-3-3-3--|--0-0-0-0-2-2-2-2--|
E|-------------------|-------------------|-------------------|-------------------|

G|-------------------|-------------------|-------------------|-------------------|
D|-------------------|-------------------|-------------------|-------------------|
A|------------0-0-0--|------------0-0-0--|------------0-0-0--|-------------------|
E|--2-2-0-0-2--------|--2-2-0-0-2--------|--2-2-0-0-2--------|--2-2-0-0-2-0-0----| X3


[Outro]

G|-------------------|-------------------|-------------------|-------------------|
D|-------------------|-------------------|-------------------|-------------------|
A|------------0-0-0--|------------0-0-0--|------------0-0-0--|-------------------|
E|--2-2-0-0-2--------|--2-2-0-0-2--------|--2-2-0-0-2--------|--2-2-0-0-2-0-0----|

Suggest correction
Give kudos to tab author, rate the tab!
1 2 3 4 5
comments
print report bad tab
guest
You may want to rate the tab now too:
select rating
Wanna post a correction for this tab? Suggest correction