Oops, an error
Loading. Please wait.

The Nobodies Tab

version 2
version 2
19,157 views 15 this week
6 commentsread comments
1 2 3 4 5
x 34
add to favorites
launch autoscroll
font size
0
reset
how to read this tab
guitar tuner
×
Best way to learn
"The Nobodies"
Autoscroll
slow
fast
+/-
esc
set tempo
stop
this is the acoustic version of the nobodies hope you like it

/=slide up


e-----------------------------------------|
b--1-1-1-1-1-1-1-1--1---1---1-1-1-1-------|
g---2---2---2---2----1---1---2---2--------|
d---------------------2---2---------------|  verse x3
a-0---0---3---3------------0--------------|
e-----------------0---0-------3-----------|

e-----------------------------------------|
b-----------------------------------------|
g----------55555555-----------------------|
d-77777777-55555555-22222222-7777-5555----|   chorus x2
a-77777777-33333333-22222222-7777-5555----|
e-55555555----------00000000-5555-3333----|


e-----------------------------------------|
b--1-1-1-1-1-1-1-1--1---1---1-1-1-1-------|
g---2---2---2---2----1---1---2---2--------|
d---------------------2---2---------------|  verse x2
a-0---0---3---3------------0--------------|
e-----------------0---0-------3-----------|

e-----------------------------------------|
b-----------------------------------------|
g----------55555555-----------------------|
d-77777777-55555555-22222222-7777-5555----|   chorus x2
a-77777777-33333333-22222222-7777-5555----|
e-55555555----------00000000-5555-3333----|

e---------------------------------------------------------------------------|
b---------------------------------------------------------------------------|
g---------------------------------------------------------------------------|
d-77777777-33333333-77777777-33333333-77777777-33333333-77777777-33333333-2-|
a-77777777-33333333-77777777-33333333-77777777-33333333-77777777-33333333-2-|
e-55555555-11111111-55555555-11111111-55555555-11111111-55555555-33333333-0-|
                        ^^bit after chorus^^
e--------------|
b--------------|
g--------------|
d--------------|
a-3/7-5-3-0----|    little solo filler thing
e--------------|


e-----------------------------------------|
b--1-1-1-1-1-1-1-1--1---1---1-1-1-1-------|
g---2---2---2---2----1---1---2---2--------|
d---------------------2---2---------------|  verse x3
a-----0---3---3------------0--------------|
e-----------------0---0-------3-----------|

e------------------------------------------------------------------|
b---1-1-1-1-1-1-1-1------------------------------------------------|
g----2---2---2---2-----------------------------55555555------------|
d------------------22222222-7777-5555-77777777-55555555------------|
a-0----0---3---3---22222222-7777-5555-77777777-33333333-22222222---|
e------------------00000000-5555-3333-55555555----------00000000---|

e-----------------------------------------------------------------------|
b-----------------------------------------------------------------------|
g-----------------------------------------------------------------------|
d-7777-5555-7777-7777-7777----------------------------------------------|
a-7777-5555-7777-7777-7777----------------------------------------------|
e-5555-3333-5555-5555-5555----------------------------------------------|


             the end hope you like my tab rate it please
Suggest correction
comments
print report bad tab
6 comments total. Showing first comments.
0 reply
Empyre 10 Jan 25, 2005 07:00 PM

I really like how you have every single beat written out and even have a little key for the extra symbols. Great tab man. This version is way easier to read that version 1.

0 reply
kornatemymum 161 Oct 06, 2005 04:31 AM

shouldn't a "true" accousitic version have real chords as opposed to power chords. Great tab but power chords sound ill on accoustic guitars.

0 reply
Victor Medina 412 Dec 30, 2007 01:49 AM

Great job. Just a small correction: I think the 5th and 6th "2"s on the G string in the verses, should be "1"s instead.
Other than that, everything seems correct to me. Thanks!

guest
You may want to rate the tab now too:
select rating
Wanna post a correction for this tab? Suggest correction