Oops, an error
Loading. Please wait.

The Nobodies Tab

version 4
version 4
2,049 views 3 this week
6 commentsread comments
1 2 3 4 5
1 last vote to show rating
add to favorites
launch autoscroll
font size
0
reset
how to read this tab
guitar tuner
backing track
0:00
0:00
×
Best way to learn
"The Nobodies"
Autoscroll
slow
fast
+/-
esc
set tempo
stop
Tuning
E A D G B E
Marilyn Manson-The Nobodies 
From: HolyWood
Tabbed by Nora (Nora5555@aol.com)
(the running order is at the bottom)
This tab is sounds perfect to me! but if anybody feals there is a mistake please email 
me your correction!

Tuning: Standard (EADGBE)
<1> Intro/ verse
E|---------------------------------|----------------------------------|
B|---1---1---1---1---1---1---1---1-|---1-------1-------1---1---1---1--|
G|-----2-------2-------2-------2---|-----1-------1-------2-------2----|
D|---------------------------------|-------2-2-----2------------------|
A|-0-------0-------0-------0-------|-----------------0-------0--------|
E|---------------------------------|-0--------------------------------|

<2> Chorus
E|------------------------|
B|------------------------|
G|------------------------|
D|-7---8----2---7---5-----|
A|-7---8----2---7---5-----|
E|-5---10---0---5---3-----|
  x8  x8   x8  x4  x4

<3> some children died the other day...
E|--------------------------------|
B|--------------------------------|
G|--------------------------------|
D|--7--3---7--3---7--3---7--3---2-|
A|--7--3---7--3---7--3---7--3---2-|
E|--5--1---5--1---5--1---5--1---0-|
  x8 x8  x8 x8  x8 x8  x8 x8  x16


<4> Enter chorus...
E|------------|
B|------------|
G|------------|
D|-2--7--5----|
A|-2--7--5----|
E|-0--5--3----|
  x8 x4 x4

<5> Outro
E|--------------------------------------|
B|--------------------------------------|
G|--2--2------2--2------2--2-----2--2---|
D|--2--2------2--2------2--2-----2--2---|
A|--0--0------0--0------0--0-----0--0---|
E|--------------------------------------|

Play:

<1> [x1] (x1 for intro and x2 for verse "today I'm dirty...")
<2> [x2] (We are the Nobodies! Wanna be somebodies...)
<1> [x1] (yesterday I was dirty...)
<2> [x2] (We are the Nobodies...)
<3> [x1] (Some children died...)
<1> [x2] (on 2nd, "nah nanah nah nah" and on 3rd, "we are the nobodies") 
<2> [x2] (" We are the nobodies, wanna be somebodies...")
<5> [x1] ("...WE'RE DEAD, THEY'LL KNOW JUST WHO WE ARE!")
<2> [x2] ("We are the Nobodies" etc)
Suggest correction
Give kudos to tab author, rate the tab!
1 2 3 4 5
comments
print report bad tab
6 comments total. Showing first comments.
0 reply
Kaos3140 10 Jun 05, 2002 08:00 PM

MANSON SUCKS OLD MAN BALLS. good tab though

0 reply
PSYCOINTHECLOSE 15 Sep 25, 2002 08:00 PM

beutiful the best out of all of them

0 reply
PSYCOINTHECLOSE 15 Sep 25, 2002 08:00 PM

i do have one correction though on the intro it goes
-------- not ----------
-0------ -0--------
---1---- ---1------
-----2-2 -----3-3--
-------- ----------
0------- 0---------

guest
You may want to rate the tab now too:
select rating
Wanna post a correction for this tab? Suggest correction