Oops, an error
Loading. Please wait.

The Point Tab

248 views 1 this week
no commentswrite comment
1 2 3 4 5
please rate
add to favorites
launch autoscroll
font size
0
reset
how to read this tab
guitar tuner
Autoscroll
slow
fast
+/-
esc
set tempo
stop
Help us to improve Ultimate-Guitar.com Take our survey!
×
Author
Tabbed by:gereth
Email:gereth89@gmail.com

Tuning: EADGBe

there is one missing part, but the other is complete:

verse:
e|---------------------------------------------------------------------------|
B|---------------------------------------------------------------------------|
G|---------------------------------------------------------------------------|
D|-10-8-10-10-8-10-12-13\12-10-8-10--10-8-10-10-8-10-12-13^-10-8-10----------|
A|---------------------------------------------------------------------------|
E|---------------------------------------------------------------------------|

e|---------------------------------------------------------------------------|
B|---------------------------------------------------------------------------|
G|---------------------------------------------------------------------------|
D|-10-8-10-10-8-10-12-13\12-10-8-10--10-8-10-10-8-10-12^---------------------|
A|---------------------------------------------------------------------------|
E|---------------------------------------------------------------------------|

solo:
e|---------------------------------------------------------------------------|
B|---------------------------------------------------------------------------|
G|-13-13-13-12-12-10-8-10-10-12-10-10-10-8-8-8-7-7-8-(7)-5-------------------|
D|---------------------------------------------------------------------------|
A|---------------------------------------------------------------------------|
E|---------------------------------------------------------------------------|

e|---------------------------------------------------------------------------|
B|---------------------------------------------------------------------------|
G|-13-13-13-12-12-10-8-10-10-12-10-8-7-7-8-8-8-10-10-10-12-12-12-15-15-15----|
D|---------------------------------------------------------------------------|
A|---------------------------------------------------------------------------|
E|---------------------------------------------------------------------------|

e|----------------------------------------------------------------------15\13-11|
B|-15-15-15-13-13-15-15-15-15-13-13-17\15-15-15-13-13-15-15-15-15-13-13---------|
G|------------------------------------------------------------------------------|
D|------------------------------------------------------------------------------|
A|------------------------------------------------------------------------------|
E|------------------------------------------------------------------------------|

e|---------------------------------------------------------------------------|
B|-15-15-15-13-13-15-15-11-11-11-11-11-11-------------------9-9-9-8-8-9------|
G|----------------------------------------------------------------------8-8--|
D|---------------------------------------------------------------------------|
A|---------------------------------------------------------------------------|
E|---------------------------------------------------------------------------|

solo end:
I. on bass but sounds cool on a normal guitar too
e|---------------------------------------------------------------------------|
B|---------------------------------------------------------------------------|
G|---------------------------------------------------------------------------|
D|---------------------------------------------------------------------------|
A|-12-(x8)-10-(x8)-7-(x8)-8-(8x)---------------------------------------------|
E|-10-------8------5------6--------------------------------------------------|

II.:
e|-20-18-16-15-13-15-16--18-16-15-13-11-13-15--16-15-13-11-10-11-13--11-15-16-13-13-15-13-11|
B|------------------------------------------------------------------------------------------|
G|------------------------------------------------------------------------------------------|
D|------------------------------------------------------------------------------------------|
A|------------------------------------------------------------------------------------------|
E|------------------------------------------------------------------------------------------|

| /  slide up
| \  slide down
| h  hammer-on
| p  pull-off
| ~  vibrato
| +  harmonic
| x  Mute note

I hope you liked it; if yes, please rate; if not, please tell me what was wrong via 
Thanks for reading ;)
===============================================================================
Suggest correction
Give kudos to tab author, rate the tab!
1 2 3 4 5
comments
print report bad tab
guest
You may want to rate the tab now too:
select rating
Wanna post a correction for this tab? Suggest correction