Oops, an error
Loading. Please wait.

The Reflecting God bass

version 1
version 1

Whole song

Interactive

8,112 views 18 this week
2 commentsread comments
1 2 3 4 5
x 6
add to favorites
×
Save as Personal and add changes to this tab that will be seen only by you. Learn more ›
×
You can save this tab as Personal to edit and correct it or add notes. All changes will be seen only by you. Learn more »
launch autoscroll
font size
0
reset
guitar tuner
backing track
0:00
0:00
edit
Autoscroll
slow
fast
+/-
esc
set tempo
stop
Author
Difficulty
Band:   Marilyn Manson
Song:   The Reflecting God
Year:   1996
Album:  Antichrist Superstar
Tuning: Standard   EADBGE




Main Riff (used during intro and verse) 
"your world is an ashtray..."
G|------------------|
D|------------------|
A|------7-------5-8-|
E|-0000---0-000-----|


Pre-chorus 
"my world is unaffected..."
G|------------------------------------------------------------------------| 
D|------------------------------------------------------------------------|
A|-7-7-7-7-7-7-7-7-101010-9-7--7-7-7-7-7-7-7-7-7-101010-9-7-7-------------|
E|------------------------------------------------------------8-8-8-8-8-8-|

G|---------------------------------------------------|
D|---------------------------------------------------|
A|-------------------------------------101010-9-7--7-|
E|-8-8-5-5-5-5-3-3-5-5-0-0-0-0-0-0-0-0---------------|
repeat x2

Chorus 
"I went to god just to see..."
G|----------------------------------|
D|------------7---7-----------------|
A|-3-3-3-33-------------------------|
E|----------5---5---5-0-0-0-000-0-0-|


Post-chorus 
"scar, scar and the world gets smaller..."
G|-----------------|
D|-----------------|
A|-----------------|
E|-0--0--666-5-3/2-|


repeat verse


repeat prechorus


repeat chorus


repeat post-chorus

Breakdown
"No salvation, No forgiveness..."
G|------------------|
D|-2223332223332200-|
A|------------------|
E|------------------|

there is no bass played in the acoustic part


end the song playing the post-chorus




            
            
Suggest correction
Creating personal tab
Creating personal tab
You can edit any tab online and save it as your Personal.

You can edit, replace or remove any tab part or add personal notes – all changes will be seen only by you.

Personal tabs can be accessed anytime from any device, even offline.
Learn more »
comments
print report bad tab
2 comments total.
0 reply
motimon3 109 Jun 13, 2009 06:29 PM

good job man!

0 reply
Izaak247 120 Sep 04, 2012 01:12 PM

Love the intro

guest
You may want to rate the tab now too:
select rating
Wanna post a correction for this tab? Suggest correction