Oops, an error
Loading. Please wait.

The Reflecting God tab

version 2
version 2

Whole song

Interactive

796 views 1 this week
1 commentread comment
1 2 3 4 5
2 more votes to show rating
add to favorites
×
Save as Personal and add changes to this tab that will be seen only by you. Learn more ›
×
You can save this tab as Personal to edit and correct it or add notes. All changes will be seen only by you. Learn more »
launch autoscroll
font size
0
reset
how to read this tab
guitar tuner
backing track
0:00
0:00
edit
Autoscroll
slow
fast
+/-
esc
set tempo
stop
Song - The Reflecting God
Band - Marilyn Manson
Tabbed by Angel_Fires

Okay I know this TAB is 90 - 100% correct and I've played it and it sounds right so here you go:

Verse:

Intro after first singing part:
e----------------|--------------|
B----------------|--------------|
G----------------|--------------|
D-3-2-2-0--------|-3-2-3-6------|
A----------------|--------------|
D----------------|--------------|

Riff#1 Played after Intro:
e------------------|------------------|
B------------------|------------------|
G------------------|------------------|
D--3---3----3---3--|--3---3----3---3--|
A------------------|------------------|
D------------------|------------------|
PM .   .    .   .     .   .    .   .

Riff#2 With some pedal type of flanger pedal:
e---------------|---------------|---------------|---------------|
B---------------|---------------|---------------|---------------|
G---------------|---------------|---------------|---------------|
D-2-2-2-2-2-2-2-|-2-2-2-2-2-2-2-|-2-2-2-2-2-2-2-|-2-2-2-2-2-2-2-|
A-2-2-2-2-2-2-2-|-2-2-2-2-2-2-2-|-2-2-2-2-2-2-2-|-2-2-2-2-2-2-2-|
D---------------|---------------|---------------|---------------|
PM. . . . . . .   . . . . . . .   . . . . . . .   . . . . . . . 


Pre-Chorus:
e------------------|------------------|------------------|------------------|
B------------------|------------------|------------------|------------------|
G------------------|------------------|------------------|------------------|
D-2-5-5-5-8-5-2-0--|-2-5-5-5-8-5-2-0--|-2-5-5-5-8-5-2-0--|-2-5-5-5-8-5-2-0--|
A-2-5-5-5-8-5-2-0--|-2-5-5-5-8-5-2-0--|-2-5-5-5-8-5-2-0--|-2-5-5-5-8-5-2-0--|
D-2-5-5-5-8-5-2-0--|-2-5-5-5-8-5-2-0--|-2-5-5-5-8-5-2-0--|-2-5-5-5-8-5-2-0--|

Chorus:
e------------------------|
B------------------------|
G------------------------|
D-2--2--8-8-8-5-5-5------|
A-2--2--8-8-8-5-5-5------|
D-2--2--8-8-8-5-5-5------|


Post Chorus
e--------------------|
B--------------------|
G--------------------|
D-2------------------|
A-2------------------|
D-2------------------|
Ring ~~~~~~~~~~~~~~~~

Order:
Intro x2
Riff#1 x1
Riff#2 x1
Pre-Chorus x1
Chorus x4
Riff#1 x1
Riff#2 x1
Pre-Chorus x1
Chorus x4
Post Chorus x4
Intro x4
Chorus x4
Post Chorus x1

            
            
Suggest correction
Creating personal tab
Creating personal tab
You can edit any tab online and save it as your Personal.

You can edit, replace or remove any tab part or add personal notes – all changes will be seen only by you.

Personal tabs can be accessed anytime from any device, even offline.
Learn more »
Give kudos to tab author, rate the tab!
1 2 3 4 5
comments
print report bad tab
1 comment total.
0 reply
habubo 10 Apr 09, 2007 05:46 AM

omg...its all wrong:S

guest
You may want to rate the tab now too:
select rating
Wanna post a correction for this tab? Suggest correction