Oops, an error
Loading. Please wait.

The Reflecting God tab

version 3
version 3

Whole song

Interactive

6,763 views 27 this week
2 commentsread comments
1 2 3 4 5
x 9
add to favorites
×
Save as Personal and add changes to this tab that will be seen only by you. Learn more ›
×
You can save this tab as Personal to edit and correct it or add notes. All changes will be seen only by you. Learn more »
launch autoscroll
font size
0
reset
how to read this tab
guitar tuner
backing track
0:00
0:00
edit
Autoscroll
slow
fast
+/-
esc
set tempo
stop
Author
Difficulty
Band:   Marilyn Manson
Song:   The Reflecting God
Tuning: Standard (EADGBE)
Album:  Antichrist Superstar
Year:   1996

                 -T-H-E---R-E-F-L-E-C-T-I-N-G---G-O-D-

well, here ya go...



/ = slide
r = let ring
^ = bend
p = pull-off
h = hammer-on
pm= palm mute

Bass Intro

Guitar Comes In
E|--------------------------|
B|--------------------------|
G|--------------------------|
D|--------------------------|
A|-/8-7-5-7r---/8-7-5-7-/11-|
E|--------------------------|
repeat x2

Verse (play this at the right parts/ the timing is kind of hard)
E|---|
B|-9-|
G|---|
D|---|
A|---|
E|---|
 PM

Pre-Chorus (my world is unaffected...)
E|--------------------------------------------------|
B|--------------------------------------------------|
G|--------------------------------------------------|
D|-999999999999999955555555-------------------------|
A|-777777777777777733333333777755772222222222222222-|
E|-------------------------555533550000000000000000-|
  pm----------------------------------------------|
REPEAT x2

Chorus (I went to god just to see...)
E|----------------------------------|
B|----------------------------------|
G|-5-5-5-55-------------------------|
D|-5-5-5-55-7-7-7-8-2-2-2-222-2-2-2-|
A|-3-3-3-33-7-7-7-8-2-2-2-222-2-2-2-|
E|----------5-5-5-6-0-0-0-000-0-0-0-|
Repeat x4

Post-Chorus (Heavy Distortion)
E|-----------------|
B|-----------------|
G|-----------------|
D|-----------------|
A|-2--2--888-7-5/4-|
E|-0--0--666-5-3/2-|
Repeat x4

Pre-Verse 2
E|-------------------------|
B|-------------------------|
G|-------------------------|
D|-------------------------|
A|-------------------------|
E|-5p0--5p0--5p0--5p0--3p0-|
Repeat x4

Verse 2 (play where needed/ the timing is kinda hard)
E|---|
B|-9-|
G|---|
D|---|
A|---|
E|---|
 pm

Chorus 2
E|----------------------------------|
B|----------------------------------|
G|-5-5-5-55-------------------------|
D|-5-5-5-55-7-7-7-8-2-2-2-222-2-2-2-|
A|-3-3-3-33-7-7-7-8-2-2-2-222-2-2-2-|
E|----------5-5-5-6-0-0-0-000-0-0-0-|
Repeat x4


E|-----------------|
B|-----------------|
G|-----------------|
D|-----------------|
A|-2--2--888-7-5/4-|
E|-0--0--666-5-3/2-|
Repeat x8

E|---|
B|---|
G|---|
D|-2-|
A|-2-|
E|-0-|
repeat x4

Drums play for a while...

then come in with this
E|------------|
B|------------|
G|------------|
D|------------|
A|-7--8p7p5-7-|
E|------------|

then switch to:
(forgiveness!!!)
       -------------------pick the E string first here
      \/
E|-0--7--12^-|
B|-5--7------|
G|-----------|
D|-----------|
A|-----------|
E|-----------|


Acoustic Part
|-0-0-0-00----------0--0--0000-000-|
|-1-1-1-11-0-0-0-00-0--0--0000-000-|
|-0-0-0-00-0-0-0-00-0--0--0000-000-|
|-2-2-2-22-0-0-0-00-2--2--2222-222-|
|-3-3-3-33-2-2-2-22-2--2--2222-222-|
|----------3-3-3-33-0--0--0000-000-|
Repeat x4

Heavy Distortion
|-----------------|
|-----------------|
|-----------------|
|-----------------|
|-2--2--888-7-5/4-|
|-0--0--666-5-3/2-|
Repeat x8


            
            
Suggest correction
Creating personal tab
Creating personal tab
You can edit any tab online and save it as your Personal.

You can edit, replace or remove any tab part or add personal notes – all changes will be seen only by you.

Personal tabs can be accessed anytime from any device, even offline.
Learn more »
comments
print report bad tab
2 comments total.
0 reply
joemamabassman 10 Jun 28, 2008 06:26 PM

You butchered the acoustic part, everything near forgiveness and the verse.
I own the actaul tab book.

In the verse you go like so
e|--------------------------------------------------------------------------|
B|--------------------------------------------------------------------------|
G|--------------------------------13--13-----------------------------13-----|
D|--------------------------------------------------------------------------|
A|--------------------------------------------------------------------------|
E|12-12-12-12-12-12-12---12-12-12--------12-12-12-12-12-----12-12-12--------|
but palm mute the 12s

guest
You may want to rate the tab now too:
select rating
Wanna post a correction for this tab? Suggest correction