Oops, an error
Loading. Please wait.

They Say That Hells Not Hot bass

2,996 views 3 this week
no commentswrite comment
1 2 3 4 5
1 last vote to show rating
add to favorites
×
Save as Personal and add changes to this tab that will be seen only by you. Learn more ›
×
You can save this tab as Personal to edit and correct it or add notes. All changes will be seen only by you. Learn more »
launch autoscroll
font size
0
reset
guitar tuner
edit
Autoscroll
slow
fast
+/-
esc
set tempo
stop
Author
They Say That Hell's not Hot
Marilyn Manson
From the album "Eat Me, Drink Me" (2007)

Tabbed by javi_twiggy

Standar Tunning (EADG)

=========================================


chorus:
G|------------------------------------|----------------------------------|
D|------------------------------------|----------------------------------|
A|--0-0-0-0-3-3-3---------------------|--0-0-0-0-3-3-3-------------------|
E|----------------0---0-0-0-3-3-3-3---|----------------0---0-0-0-3--3----|


verses:
G|----------------------------------------------------------------|
D|--------------------------------------7-5----5\2----2-----------|
A|--0----0-2-3----3-5----5-/8----8\0--------------------3----2----|
E|----------------------------------------------------------------|


pre-chorus:
G|---------------------------------------------------------------------|
D|-------------------------------------------------/5-5-5-5-5-5-5-5----|
A|--5-5-5-5-5-5-5-5/8-8-8-8-8-8-8-8-3-3-3-3-3-3-3-3--------------------|
E|---------------------------------------------------------------------|


bass played while solo:
G|---------------------------------------|
D|---------------------------------------|
A|---------------------------------------|
E|--0-0-0-00-5-5-5-5---0-0-0-00-5---5----|

=================================[the end]==================================
Suggest correction
Creating personal tab
Creating personal tab
You can edit any tab online and save it as your Personal.

You can edit, replace or remove any tab part or add personal notes – all changes will be seen only by you.

Personal tabs can be accessed anytime from any device, even offline.
Learn more »
Give kudos to tab author, rate the tab!
1 2 3 4 5
comments
print report bad tab
guest
You may want to rate the tab now too:
select rating
Wanna post a correction for this tab? Suggest correction