Oops, an error
Loading. Please wait.

This Is Halloween tab

version 1
version 1

Whole song

Interactive

119,795 views 102 this week
26 commentsread comments
1 2 3 4 5
x 21
add to favorites
×
Save as Personal and add changes to this tab that will be seen only by you. Learn more ›
×
You can save this tab as Personal to edit and correct it or add notes. All changes will be seen only by you. Learn more »
launch autoscroll
font size
0
reset
how to read this tab
guitar tuner
edit
Autoscroll
slow
fast
+/-
esc
set tempo
stop
[Intro]
E|--------------------------------------------------------------------------|
B|--------------------------------------------------------------------------|
G|--------------------------------------------------------------------------|
D|-5-5-5-5h6h5--3--3-3-3-3h4h3/9--7-9/12------------------------------------|
A|--------------------------------------------------------------------------|
D|--------------------------------------------------------------------------|

[Main Riff]
E|--------------------------------------------------------------------------|
B|--------------------------------------------------------------------------|
G|--------------------------------------------------------------------------|
D|-5-5-5-5h6h5--3--3-3-3-3h4h3--7-5~----------------------------------------|
A|-5-5-5-5h6h5--3--3-3-3-3h4h3--7-5~----------------------------------------|
D|-5-5-5-5h6h5--3--3-3-3-3h4h3--7-5~----------------------------------------|


************************************

| h  Hammer-on
| /  Slide up
| ~  Vibrato

************************************

            
            
Suggest correction
Creating personal tab
Creating personal tab
You can edit any tab online and save it as your Personal.

You can edit, replace or remove any tab part or add personal notes – all changes will be seen only by you.

Personal tabs can be accessed anytime from any device, even offline.
Learn more »
comments
print report bad tab
26 comments total. Showing first comments.
0 reply
gibsonrocker917 37 Nov 23, 2006 06:59 PM

i love this song


MM kicks ass

0 reply
Smitty101 196 Jan 30, 2007 11:00 AM

Marilyn Manson SUCKS!
but wow, i really like what he did with this song, its really cool. Nightmare Before Christmas is the best movie ever.

0 reply
SystemFailure 10 Mar 13, 2007 08:59 AM

Listen MUCH harder.
There is a LOT of guitar in there.
There is a lot of little twiddly bits too.
Plus the outro.
No offence

guest
You may want to rate the tab now too:
select rating
Wanna post a correction for this tab? Suggest correction