Oops, an error
Loading. Please wait.

This Is Halloween tab

version 2
version 2

Whole song

Interactive

32,766 views 36 this week
10 commentsread comments
1 2 3 4 5
x 8
add to favorites
×
Save as Personal and add changes to this tab that will be seen only by you. Learn more ›
×
You can save this tab as Personal to edit and correct it or add notes. All changes will be seen only by you. Learn more »
launch autoscroll
font size
0
reset
how to read this tab
guitar tuner
edit
Autoscroll
slow
fast
+/-
esc
set tempo
stop
Author
E|--------------------------------------------------------------------------|
B|--------------------------------------------------------------------------|
G|--------------------------------------------------------------------------|
D|-5-5-5-5h6h5--3--3-3-3-3h4h3/9--7-9/12------------------------------------|
A|--------------------------------------------------------------------------|
D|--------------------------------------------------------------------------|

Verse. This is played trought the song look at the lyrics and figureout the whole thing =)

Boys and girls of every age wouldn't you like to see something strange?
Come with us and you will see

e]------------------------------------------------------------------------]
B]------------------------------------------------------------------------]
G]------------------------------------------------------------------------]
D]-5-5-5-5--6-3-3--3-3-3-3-5-6-5--5-5-5-6-8--6-5-3------------------------]
A]------------------------------------------------------------------------]
E]------------------------------------------------------------------------]

this our town of halloween

e]-----------------------------]
B]-----------------------------]
G]-----------------------------]
D]--3-3-3-6-5------------------]
A]----------------5-4----------]
E]-----------------------------]

This is halloween this is halloween!
Pumpking scream in the dead of night

e]------------------------------------------------------------------------------------------------]
B]------------------------------------------------------------------------------------------------]
G]-6-6-5-3--6-6-6-5-3-6-------------------3-4--7-7-7-6-4-7-7-7-6-4-7------------4-4---------------]
D]------------------------------6-5-5-3-2------------------------------------------7-6-4----------]
A]---------------------------------------------------------------------------------------------6--]
E]------------------------------------------------------------------------------------------------]

            
            
Suggest correction
Creating personal tab
Creating personal tab
You can edit any tab online and save it as your Personal.

You can edit, replace or remove any tab part or add personal notes – all changes will be seen only by you.

Personal tabs can be accessed anytime from any device, even offline.
Learn more »
comments
print report bad tab
10 comments total. Showing first comments.
-1 reply
Back-2-Back 176 Apr 15, 2007 02:32 PM

you so stole this from my tab u idiot

0 reply
guitarsooloo66 10 May 06, 2007 02:34 AM

no he didnt.. this is much better and much complete than your tab... yur tab is shit..by the way.. you suck!!!

+1 reply
Ribica 103 May 10, 2007 01:25 PM

And here you are again Back 2 Back, telling that people are idiots.
This dude just wrote an more complex tab than yours, yours is just the skeleton, Gallubbi added the meat, now all that remains is the skin.
Anyway, get a life B2B.

guest
You may want to rate the tab now too:
select rating
Wanna post a correction for this tab? Suggest correction