Oops, an error
Loading. Please wait.
We have an official Tourniquet tab made by UG professional guitarists. Check out the tab »
×
25,026 views 75 this week
2 commentsread comments
1 2 3 4 5
x 7
add to favorites
×
Save as Personal and add changes to this tab that will be seen only by you. Learn more ›
×
You can save this tab as Personal to edit and correct it or add notes. All changes will be seen only by you. Learn more »
launch autoscroll
font size
0
reset
how to read this tab
guitar tuner
backing track
0:00
0:00
edit
Autoscroll
slow
fast
+/-
esc
set tempo
stop
Author
Difficulty
intermediate
Band:                   Marilyn Manson
Song:                   Tourniquet
Transcribed:            zach harper
page:                   http://zachharper.myknet.org/ 

i keep seeing bad tabs for this song... so i decided correct em.
but i'm not 100% sure if this is how u actually play it though.
though i'm not sure who plays gtr. I or II in the song.

0:06
gtr. II
e|--------|
b|--------|
g|--<12>--| Feedback
D|--------|
A|--------|
D|--------|

[Intro]
gtr. I (4x)
e|-----------------------|
b|-----------6-------5b--|
g|--2b3-2------------5b--|
D|--------5---5--(5)-----|
A|-----------------------|
D|-----------------------|

[Verse 1]
synth guitar
gtr. I (2x)
e|-----------------------|
b|-----------------------|
g|--3s5--(5)---8--(8)----|
D|-----------------------|
A|-----------------------|
D|-----------------------|

e|--------------------------------------|
b|--------------------------------------|
g|--5--(5)---11--(11)---12--(12)---8----|
D|--------------------------------------|
A|--------------------------------------|
D|--------------------------------------|

[Pre-Chorus]
gtr. I (4x)
e|-----------------------|
b|-----------6-------5b--|
g|--2b3-2------------5b--|
D|--------5---5--(5)-----|
A|-----------------------|
D|-----------------------|

[Chorus]
gtr. II  (2x)
e|--------------------------------------------------|
b|--------------------------------------------------|
g|--12---12--12-12-12-12----12s18--18--18-18-18-18--|
D|--------------------------------------------------|
A|--10---10--10-10-10-10----10s16--16--16-16-16-16--|
D|--------------------------------------------------|

e|------------------------------------------------|
b|------------------------------------------------|
g|--18s19--19--19-19-19-19----19s20---14s15--15b--|
D|------------------------------------------------|
A|--16s17--17--17-17-17-17----17s18---12s13--13b--|
D|------------------------------------------------|

[Solo]
gtr. I
e|-------------15--------------------------------------------|
b|--13b15--(15)-----11--(11)--10-----------------------------|
g|--------------------------------10b12--(12)-----------<12>-|
D|--------------------------------------------10--(10)-------|
A|-----------------------------------------------------------|
D|-----------------------------------------------------------|

(during the end of solo)
light distortion
gtr. II
e|-------------|
b|-------------|
g|-------------|
D|-------------|
A|-x\\\\-------| pick stratch slowly
D|-------------|

2:06
gtr. II
e|-----------|
b|-----------|
g|-----------|
D|-----------| 
A|--(x)------| (feedback)
D|-----------|

[Verse 2]
Clear tone
gtr. I
e|----------------------------------|
b|----------------------------------|
g|----------------------------------|
D|----------------------------------|
A|----------------------------------|
D|--5-5-5-5-5-5-5--5-5--3-3--5--5---|
    . . . . . . .  . .  . .  .  .

2:06
gtr. II
e|--------|
b|--------|
g|--<12>--| Feedback
D|--------|
A|--------|
D|--------|

2:16
gtr. II
e|--------|
b|--------|
g|--<12>--| Feedback
D|--------|
A|--------|
D|--------|

[Bridge]
gtr. I
e|--------------------------------|-------------|
b|--------------------------------|-------------|
g|--------------------------------|-------------|
D|--x-x-x--x--x-x-x-x-x--x---x-x--|--x----(x)---|
A|--x-x-x--x--x-x-x-x-x--x---x-x--|--x----(x)---| Feedback
D|--x-x-x--x--x-x-x-x-x--x---x-x--|--x----(x)---|
    . . .  .  . . . . .  .   . .

gtr. II
e|-------|
b|--2-2--|
g|--0-0--|
D|-------|
A|-------|
D|-------|

gtr. I
e|--------------------------------|-------------|
b|--------------------------------|-------------|
g|--------------------------------|-------------|
D|--x-x-x--x--x-x-x-x-x--x---x-x--|--x----(x)---| 
A|--x-x-x--x--x-x-x-x-x--x---x-x--|--x----(x)---| Feedback
D|--x-x-x--x--x-x-x-x-x--x---x-x--|--x----(x)---|
    . . .     . . . .

[Outro]
gtr. I (4x)                       (1x)
e|-----------------------|--------------|
b|-----------6-------5b--|--------------|
g|--2b3-2------------5b--|--2b3---(3)---| (Feedback)
D|--------5---5--(5)-----|--------------|
A|-----------------------|--------------|
D|-----------------------|--------------|

************************************

 b  = bend
(n) = let ring
 = natural harmonic
 .  = palm mute
 s  = slide

************************************
Suggest correction
Creating personal tab
Creating personal tab
You can edit any tab online and save it as your Personal.

You can edit, replace or remove any tab part or add personal notes – all changes will be seen only by you.

Personal tabs can be accessed anytime from any device, even offline.
Learn more »
comments
print report bad tab
2 comments total.
0 reply
Agent_Kujo 10 Nov 06, 2007 10:42 AM

good tab m8

+3 reply
jewilson2001 10 Dec 26, 2014 10:53 AM

The intro/ pre chorus sounds better, and playes easier, like this:
e|-----------------------|
b|-----------6-------5b--|
g|-------------------5b--|
D|--7b8-7--5---5--(5)----|
A|-----------------------|
D|-----------------------|

guest
You may want to rate the tab now too:
select rating
Wanna post a correction for this tab? Suggest correction