Oops, an error
Loading. Please wait.

Unkillable Monster Tab

version 1
version 1

Whole song

Interactive

12,628 views 15 this week
2 commentsread comments
1 2 3 4 5
x 13
add to favorites
launch autoscroll
font size
0
reset
how to read this tab
guitar tuner
Autoscroll
slow
fast
+/-
esc
set tempo
stop
Help us to improve Ultimate-Guitar.com Take our survey!
×
Author
Marilyn Manson - Unkillable Monster

Standard Tuning



Intro/Verse 1

E|------------------------------------------------------|
B|---------------------------------------0------------0-|
G|----------0-------------0----------2------------0-----|
D|-------0-------------2----------2------------2--------|   x5
A|----2-------------2----------0------------3-----------|
E|-3-------------0--------------------------------------|




Chorus

E|-------------------------------------------------------------------------|
B|-------------------------------------------------------------------------|
G|-------------------------------------------------------------------------|
D|-5-5-5-5-5-5-5-5-2-2-2-2-2-2-2-2-7-7-7-7-7-7-7-7-10-10-10-10-10-10-10-10-|  x2
A|-5-5-5-5-5-5-5-5-2-2-2-2-2-2-2-2-7-7-7-7-7-7-7-7-10-10-10-10-10-10-10-10-|
E|-3-3-3-3-3-3-3-3-0-0-0-0-0-0-0-0-5-5-5-5-5-5-5-5-8--8--8--8--8--8--8--8--|




Verse 2

Guitar 1
E|-----------------------------------------|
B|-----------------------------------------|
G|-----7----9------------7-----9-----7-----|
D|-5------------9----7---------------------|
A|-----------------------------------------|
E|-----------------------------------------|


E|---------------------------------------------------|
B|--------------------------------------0------------|
G|----------0-----------------------2----------------|
D|-------0-----------------------2-------------------| x2
A|----2-----------------------0----------------------|
E|-3-------------------------------------------------|

Guitar 2

Strum these chords along the lead guitar.
E|--3-----0----0---------|
B|--0-----0----0----0----|
G|--0-----0----2----0----|
D|--0-----2----2----2----|
A|--2-----2----0----3----|
E|--3-----0--------------|




Chorus

E|--------------------------------------------------------------------------|
B|--------------------------------------------------------------------------|
G|--------------------------------------------------------------------------|
D|-5-5-5-5-5-5-5-5-2-2-2-2-2-2-2-2-7-7-7-7-7-7-7-7-10-10-10-10-10-10-10-10--| x6
A|-5-5-5-5-5-5-5-5-2-2-2-2-2-2-2-2-7-7-7-7-7-7-7-7-10-10-10-10-10-10-10-10--|
E|-3-3-3-3-3-3-3-3-0-0-0-0-0-0-0-0-5-5-5-5-5-5-5-5-8--8--8--8--8--8--8--8---|




Outro

E|-3--3-3-3-3-3-3-----0--0-0-0-0-0-0---0--0-0-0-0-0-0---------------------|
B|-0--0-0-0-0-0-0-----0--0-0-0-0-0-0---0--0-0-0-0-0-0-----0--0-0-0-0-0-0--|
G|-0--0-0-0-0-0-0-----0--0-0-0-0-0-0---2--2-2-2-2-2-2-----0--0-0-0-0-0-0--| 
D|-0--0-0-0-0-0-0-----2--2-2-2-2-2-2---2--2-2-2-2-2-2-----2--2-2-2-2-2-2--| x2
A|-2--2-2-2-2-2-2-----2--2-2-2-2-2-2---0--0-0-0-0-0-0-----3--3-3-3-3-3-3--|
E|-3--3-3-3-3-3-3-----0--0-0-0-0-0-0--------------------------------------|

E|-------------------------------------------------------|
B|---------------------------------------0------------0--|
G|----------0-------------0----------2------------0------|
D|-------0-------------2----------2------------2---------| x3
A|----2-------------2----------0------------3------------|
E|-3-------------0---------------------------------------|
Suggest correction
comments
print report bad tab
2 comments total.
0 reply
scorpion25 111 Jan 21, 2010 04:30 PM

perfect!
loved it man!
if you figure out the solo, please post to us![2]

0 reply
PulS3 10 Dec 12, 2010 06:08 PM

Spot on mate, love the song and love the tab :) you saved my life as I'm doing this song for my A Level Music performance :D.

guest
You may want to rate the tab now too:
select rating
Wanna post a correction for this tab? Suggest correction