Oops, an error
Loading. Please wait.

How To Be A Heartbreaker tab

version 5
version 5
1,187 views 9 this week
no commentswrite comment
1 2 3 4 5
2 more votes to show rating
add to favorites
×
Save as Personal and add changes to this tab that will be seen only by you. Learn more ›
×
You can save this tab as Personal to edit and correct it or add notes. All changes will be seen only by you. Learn more »
launch autoscroll
font size
0
reset
how to read this tab
guitar tuner
edit
Autoscroll
slow
fast
+/-
esc
set tempo
stop
Author
Difficulty
How to be a Heartbreaker
Marina and the Diamonds


Rhythms, exact number of times to play each part and strumming patterns have
been omitted.  Just listen to the track and get a feel for it yourself.



        Verse                        Chorus

   -----clean-----           ---------distortion-------
e|----------------------------------------------------------|
B|--3------------2------------------------------------------|
G|--4---2---4----2-----------4-------------4----------------|
D|------4---5----------------4--4--5--7----4---4--5---2-----|
A|---------------------------2--4--5--7----2---4--5---2-----|
E|------------------------------2--3--5--------2--3---0-----|



Post chorus riff
                           1st       2nd 
e|----------------------------------------------------------|
B|-------------10-------------------------------------------|
G|---11--9--------12-11----9-11------9----------------------|
D|----------12-------------------------9--------------------|
A|----------------------------------------------------------|
E|----------------------------------------------------------|

e|----------------------------------------------------------|
B|----------10-----------------------10---------------------|
G|--11-9-------12-11--9-----------------11------------------|
D|-------12--------------12--9-11-12------------------------|
A|----------------------------------------------------------|
E|----------------------------------------------------------|   




Bridge. Play clean. All notes of equal length
e|----------------------------------------------------------------------|
B|--------0-----0---------0-------0--------0-----0---------0-------0----|
G|------4---4-----4-----4-------6--------7---7-----7-----7-------6------|
D|----5-------5-------5-------7--------9-------9-------9-------7--------|
A|----------------------------------------------------------------------|
E|--3---------------3-------5--------7---------------7-------5----------|






LYRICS

[Verse 1]
Rule number one, is that you gotta have fun,
But baby when you're done, you gotta be the first to run
Rule number two, just don't get attached to, 
Somebody you could lose
So le-let me tell you

[Chorus]
This is how to be a heartbreaker
Boys they like a little danger
We'll get him falling for a stranger, a player
Singing I lo-lo-love you

How to be a heartbreaker
Boys they like the look of danger
We'll get him falling for a stranger, a player
Singing I lo-lo-love you
At least I think I do!

Cause I lo-lo-lo-love you.

[Verse 2]
Rule number three, wear your heart on your cheek
But never on your sleeve, unless you wanna taste defeat
Rule number four, gotta be looking pure
Kiss him goodbye at the door and leave him wanting more-more

[Chorus]
This is how to be a heartbreaker
Boys they like a little danger
We'll get him falling for a stranger, a player
Singing I lo-lo-love you

How to be a heartbreaker
Boys they like the look of danger
We'll get him falling for a stranger, a player
Singing I lo-lo-love you
At least I think I do!

Cause I lo-lo-lo-love you.

[Bridge]
Girls, we do, whatever it will take
Cause girls don't want, we don't want our hearts to break
In two, so it's better to be fake
Can't risk losing in love again babe.

[Chorus]
This is how to be a heartbreaker
Boys they like a little danger
We'll get him falling for a stranger, a player
Singing I lo-lo-love you

How to be a heartbreaker
Boys they like the look of danger
We'll get him falling for a stranger, a player
Singing I lo-lo-love you

Cause I lo-lo-lo-love you.
At least I think I do!

            
            
Suggest correction
Creating personal tab
Creating personal tab
You can edit any tab online and save it as your Personal.

You can edit, replace or remove any tab part or add personal notes – all changes will be seen only by you.

Personal tabs can be accessed anytime from any device, even offline.
Learn more »
Give kudos to tab author, rate the tab!
1 2 3 4 5
comments
print report bad tab
guest
You may want to rate the tab now too:
select rating
Wanna post a correction for this tab? Suggest correction