Oops, an error
Loading. Please wait.

Immortal bass

442 views 6 this week
no commentswrite comment
1 2 3 4 5
3 more votes to show rating
add to favorites
×
Save as Personal and add changes to this tab that will be seen only by you. Learn more ›
×
You can save this tab as Personal to edit and correct it or add notes. All changes will be seen only by you. Learn more »
launch autoscroll
font size
0
reset
guitar tuner
edit
Autoscroll
slow
fast
+/-
esc
set tempo
stop
Author
Difficulty
Order:
V1 (tacet) PC1 C1 PsC V2 PC2 C2 PsC B C3 O


[PRE-CHORUS 1]

G|-----------------|-----------------|-----------------|-----------------|
D|-----------------|-----------------|-----------------|-----------------|
A|-----------------|-3---------------|-----------------|-3---------------|
E|-1---------------|-----------------|-4---------------|-----------------|
   1 + 2 + 3 + 4 +   1 + 2 + 3 + 4 +   1 + 2 + 3 + 4 +   1 + 2 + 3 + 4 + 

G|-----------------|-----------------|-----------------|-----------------|
D|-----------------|-----------------|-----------------|-----------------|
A|-----------------|-3---------------|-----------------|-3---------------|
E|-1---------------|-----------------|-4---------------|-----------------|
   1 + 2 + 3 + 4 +   1 + 2 + 3 + 4 +   1 + 2 + 3 + 4 +   1 + 2 + 3 + 4 + 

(prolongation)
G|-----------------|-----------------|-----------------|-----------------|
D|-----------------|-----------------|-----------------|-----------------|
A|-----------------|-3---------------|-----------------|-----------------|
E|-1---------------|-----------------|-4---------------|-----------------|
   1 + 2 + 3 + 4 +   1 + 2 + 3 + 4 +   1 + 2 + 3 + 4 +   1 + 2 + 3 + 4 + 



[CHORUS 1]

G|-----------------|-----------------|-----------------|-----------------|
D|-----------------|-----------------|-----------------|-----------------|
A|-8-8-6-8---6-8---|-----------------|-----------------|-----------------|
E|-----------------|-8-----------\---|-4-----------4-/-|-8----------8-8--|
                                                                 |---3---|
   1 + 2 + 3 + 4 +   1 + 2 + 3 + 4 +   1 + 2 + 3 + 4 +   1 + 2 + 3 + 4 + 

G|------------------|-----------------|-----------------|-----------------|
D|------------------|-----------------|-----------------|-----------------|
A|-8-8-6-8---10-8---|-----------------|-----------------|-----------------|
E|------------------|-8-----------\---|-4-----------4-/-|-8----------8-x--|
                                                                  |---3---|
   1 + 2 + 3 +  4 +   1 + 2 + 3 + 4 +   1 + 2 + 3 + 4 +   1 + 2 + 3 + 4 + 

G|-----------------|-----------------|-----------------|-----------------|
D|-----------------|-----------------|-----------------|-----------------|
A|-8-8-6-8---6-8---|-----------------|-----------------|-----------------|
E|-----------------|-8-----------\---|-4-----------4-/-|-8----------8-8--|
                                                                 |---3---|
   1 + 2 + 3 + 4 +   1 + 2 + 3 + 4 +   1 + 2 + 3 + 4 +   1 + 2 + 3 + 4 + 

G|------------------|-----------------|-----------------|-----------------|
D|------------------|-----------------|-----------------|-----------------|
A|-8-8-6-8---10-8---|-----------------|-----------------|-----------------|
E|------------------|-8-----------\---|-4-----------4-/-|-8----------8-8--|
                                                                  |---3---|
   1 + 2 + 3 +  4 +   1 + 2 + 3 + 4 +   1 + 2 + 3 + 4 +   1 + 2 + 3 + 4 + 



[POST-CHORUS]

G|------------------|-----------------|-----------------|-----------------|
D|------------------|-----------------|-----------------|-----------------|
A|-8-8-6-8---10-8---|-----------------|-----------------|-----------------|
E|------------------|-8-----------\---|-4-----------4-/-|-8----------8-8--|
                                                                  |---3---|
   1 + 2 + 3 +  4 +   1 + 2 + 3 + 4 +   1 + 2 + 3 + 4 +   1 + 2 + 3 + 4 + 

G|------------------|-----------------|-----------------|-----------------|
D|------------------|-----------------|-----------------|-----------------|
A|-8-8-6-8---10-8---|-----------------|-----------------|-----------------|
E|------------------|-8-----------\---|-4-----------4-/-|-8----------8-8--|
                                                                  |---3---|
   1 + 2 + 3 +  4 +   1 + 2 + 3 + 4 +   1 + 2 + 3 + 4 +   1 + 2 + 3 + 4 + 



[VERSE 2]

G|-----------------|-----------------|-----------------|-----------------|
D|-----------------|-----------------|-----------------|-----------------|
A|-8---------------|-----------------|-----------------|-----------------|
E|-----------------|-8---------------|-4---------------|-8---------------|
   1 + 2 + 3 + 4 +   1 + 2 + 3 + 4 +   1 + 2 + 3 + 4 +   1 + 2 + 3 + 4 + 

G|-----------------|-----------------|-----------------|-----------------|
D|-----------------|-----------------|-----------------|-----------------|
A|-----------------|-6-------------\-|-----------------|-----------------|
E|-4---------------|-----------------|-1---------------|/6---------------|
   1 + 2 + 3 + 4 +   1 + 2 + 3 + 4 +   1 + 2 + 3 + 4 +   1 + 2 + 3 + 4 + 

G|-----------------|-----------------|-----------------|-----------------|
D|-----------------|-----------------|-----------------|-----------------|
A|-----------------|-3---------------|-----------------|-----------------|
E|-1---------------|-----------------|-4---------------|-8-------------\-|
   1 + 2 + 3 + 4 +   1 + 2 + 3 + 4 +   1 + 2 + 3 + 4 +   1 + 2 + 3 + 4 + 

G|-----------------|-----------------|-----------------|-----------------|
D|-----------------|-----------------|-----------------|-----------------|
A|-----------------|-6-------------\-|-----------------|-1---------------|
E|-4---------------|-----------------|-1---------------|-----------------|
   1 + 2 + 3 + 4 +   1 + 2 + 3 + 4 +   1 + 2 + 3 + 4 +   1 + 2 + 3 + 4 + 



[PRE-CHORUS 2]

G|-----------------|-----------------|-----------------|-----------------|
D|-----------------|-----------------|-----------------|-----------------|
A|-----------------|-3---------------|-----------------|-3----------3-3--|
E|-1---------------|-----------------|-4---------------|-----------------|
                                                                 |---3---|
   1 + 2 + 3 + 4 +   1 + 2 + 3 + 4 +   1 + 2 + 3 + 4 +   1 + 2 + 3 + 4 + 

G|-----------------|-----------------|-----------------|-----------------|
D|-----------------|-----------------|-----------------|-----------------|
A|-----------------|-3---------------|-----------------|-----------------|
E|-1---------------|-----------------|-4-----------4-/-|-8---------------|
   1 + 2 + 3 + 4 +   1 + 2 + 3 + 4 +   1 + 2 + 3 + 4 +   1 + 2 + 3 + 4 + 



[CHORUS 2] with fuzz

G|-----------------|-----------------|-----------------|-----------------|
D|-----------------|-----------------|-----------------|-----------------|
A|-8-8-6-8---6-8---|-----------------|-----------------|-----------------|
E|-----------------|-8-----------\---|-4-----------4-/-|-8----------8-8--|
                                                                 |---3---|
   1 + 2 + 3 + 4 +   1 + 2 + 3 + 4 +   1 + 2 + 3 + 4 +   1 + 2 + 3 + 4 + 

G|------------------|-----------------|-----------------|------------------||
D|------------------|-----------------|-----------------|----------------o-||
A|-8-8-6-8---10-8---|-----------------|-----------------|----------------o-||
E|------------------|-8-----------\---|-4-----------4-/-|-8----------8-8---||
                                                                  |---3---|
   1 + 2 + 3 +  4 +   1 + 2 + 3 + 4 +   1 + 2 + 3 + 4 +   1 + 2 + 3 + 4 + 



[BRIDGE] - no fuzz

G|-----------------|-----------------|-----------------|------------------|
D|-----------------|-----------------|-----------------|------------------|
A|-----------------|-6---------------|-----------------|------------------|
E|-4-4-4-4---4-4---|-----------------|-6-6-6-6---6-6---|/10---------------|
   1 + 2 + 3 + 4 +   1 + 2 + 3 + 4 +   1 + 2 + 3 + 4 +   1  + 2 + 3 + 4 + 

G|-----------------|-----------------|-----------------|-----------------|
D|-----------------|-----------------|-----------------|-----------------|
A|-----------------|/6---------------|-----------------|-----------------|
E|-4-4-4-4---4-4---|-----------------|-6-6-6-6-6-6-6---|-6---------------|
   1 + 2 + 3 + 4 +   1 + 2 + 3 + 4 +   1 + 2 + 3 + 4 +   1 + 2 + 3 + 4 + 

G|-----------------|-----------------|-----------------|-----------------|
D|-----------------|-----------------|-----------------|-----------------|
A|-----------------|-6---------------|-----------------|-----------------|
E|-4---------------|-----------------|-6---------------|-----------------|
   1 + 2 + 3 + 4 +   1 + 2 + 3 + 4 +   1 + 2 + 3 + 4 +   1 + 2 + 3 + 4 + 

G|-----------------|-----------------|-----------------|-----------------|
D|-----------------|-----------------|-----------------|-----------------|
A|-----------------|-6---------------|-5---------------|-----------------|
E|-4---------------|-----------------|-----------------|-----------------|
   1 + 2 + 3 + 4 +   1 + 2 + 3 + 4 +   1 + 2 + 3 + 4 +   1 + 2 + 3 + 4 + 



[CHORUS 3] with fuzz

G|-----------------|-----------------|-----------------|-----------------|
D|-----------------|-----------------|-----------------|-----------------|
A|-8-8-6-8---6-8---|-----------------|-----------------|-----------------|
E|-----------------|-8-----------\---|-4-4-4-4---4-4-/-|-8----------8-8--|
                                                                 |---3---|
   1 + 2 + 3 + 4 +   1 + 2 + 3 + 4 +   1 + 2 + 3 + 4 +   1 + 2 + 3 + 4 + 

G|------------------|-----------------|-----------------|-----------------|
D|------------------|-----------------|-----------------|-----------------|
A|-8-8-6-8---10-8---|-----------------|-----------------|-----------------|
E|------------------|-8-----------\---|-4-4-4-4---4-4-/-|-8----------8-8--|
                                                                  |---3---|
   1 + 2 + 3 +  4 +   1 + 2 + 3 + 4 +   1 + 2 + 3 + 4 +   1 + 2 + 3 + 4 + 

G|-----------------|-----------------|-----------------|-----------------|
D|-----------------|-----------------|-----------------|-----------------|
A|-8-8-6-8---6-8---|-----------------|-----------------|-----------------|
E|-----------------|-8-----------\---|-4-4-4-4---4-4-/-|-8----------8-8--|
                                                                 |---3---|
   1 + 2 + 3 + 4 +   1 + 2 + 3 + 4 +   1 + 2 + 3 + 4 +   1 + 2 + 3 + 4 + 

G|------------------|-----------------|-----------------|-----------------|
D|------------------|-----------------|-----------------|-----------------|
A|-8-8-6-8-8-11-8---|-----------------|-----------------|-----------------|
E|------------------|-8-----------\---|-4-4-4-4-------4-|-8----------8-8--|
                                                                  |---3---|
   1 + 2 + 3 +  4 +   1 + 2 + 3 + 4 +   1 + 2 + 3 + 4 +   1 + 2 + 3 + 4 + 



[OUTRO]

G|------------------|-----------------|-----------------|-----------------|
D|------------------|-----------------|-----------------|-----------------|
A|-8-8-6-8---10-8---|-----------------|-----------------|-----------------|
E|------------------|-8-----------\---|-4---------4-4-/-|-8----------8-8--|
                                                                  |---3---|
   1 + 2 + 3 +  4 +   1 + 2 + 3 + 4 +   1 + 2 + 3 + 4 +   1 + 2 + 3 + 4 + 

G|------------------|-----------------|-----------------|-----------------|
D|------------------|-----------------|-----------------|-----------------|
A|-8-8-6-8---10-8---|-----------------|-----------------|---------------6-|
E|------------------|-8-----------\---|-4---------4-4-/-|-8---------6-8---|
   1 + 2 + 3 +  4 +   1 + 2 + 3 + 4 +   1 + 2 + 3 + 4 +   1 + 2 + 3 + 4 + 

                     So keep me alive...
G||--------------------|-----------------|-----------------|------------------||
D||-o------------------|-----------------|-----------------|----------------o-||
A||-o-8-8-6-8---10-8---|-----------------|-----------------|----------------o-||
E||--------------------|-8-----------\---|-4-4-4-4---4-4-/-|-8----------8-8---||
                                                                    |---3---|
      1 + 2 + 3 +  4 +   1 + 2 + 3 + 4 +   1 + 2 + 3 + 4 +   1 + 2 + 3 + 4 + 

G|------------------|-----------------|-----------------|-----------------|
D|------------------|-----------------|-----------------|-----------------|
A|-8-8-6-8---10-8---|-----------------|-----------------|---------------6-|
E|------------------|-8-----------\---|-4-4-4-4---4-4-/-|-8---------6-8---|
   1 + 2 + 3 +  4 +   1 + 2 + 3 + 4 +   1 + 2 + 3 + 4 +   1 + 2 + 3 + 4 + 

G|------------------|-----------------|-----------------|-----------------|-----------|
D|------------------|-----------------|-----------------|-----------------|-----------|
A|-8-8-6-8---10-8---|-----------------|-----------------|-----------------|-----------|
E|------------------|-8----------8-8\-|-4-4-4---------4-|-8---------------|-1---------|
                              |---3---|
   1 + 2 + 3 +  4 +   1 + 2 + 3 + 4 +   1 + 2 + 3 + 4 +   1 + 2 + 3 + 4 + 

************************************

| /   slide up
| \   slide down
| x   Mute note

************************************

            
            
Suggest correction
Creating personal tab
Creating personal tab
You can edit any tab online and save it as your Personal.

You can edit, replace or remove any tab part or add personal notes – all changes will be seen only by you.

Personal tabs can be accessed anytime from any device, even offline.
Learn more »
Give kudos to tab author, rate the tab!
1 2 3 4 5
comments
print report bad tab
guest
You may want to rate the tab now too:
select rating
Wanna post a correction for this tab? Suggest correction