Oops, an error
Loading. Please wait.

Mowglis Road Bass Tab

781 views 1 this week
no commentswrite comment
1 2 3 4 5
please rate
add to favorites
launch autoscroll
font size
0
reset
guitar tuner
Tab Pro tools
  • play this tab
  • loop segment
  • change instrument
  • show fretboard
  • metronome
×
Best way to learn
"Mowglis Road"
Autoscroll
slow
fast
+/-
esc
set tempo
stop
Contributor
Hoping the only problem with my first rejected attempt was the layout.
I have compressed it down so it should be easy to read.

TEMPO - 146 (VIVACE)
TIME SIGNATURE - 12/8



INTRO:

        'Cuckoo'
 |1  2  3  4  |
G|W  A  I  T  |
D|W  A  I  T  |
A|W  A  I  T  |
E|W  A  I  T  |


                     'Cuckoo'                  'Cuckoo'
 |1  2  3  4  |1  2  3  4  |1  2  3  4  |1  2  3  4  |
G|------------|------------|------------|------------|
D|------------|------------|------------|------------|
A|6~---66-----|6~---66-----|6~---66-----|6~---66-----|
E|------------|------------|------------|------------|


                     'Cuckoo'                  'Cuckoo'
 |1  2  3  4  |1  2  3  4  |1  2  3  4  |1  2  3  4  |
G|------------|------------|------------|------------|
D|------------|------------|------------|------------|
A|6~---66-----|6~---66-----|------------|------------|
E|------------|------------|6~---66-----|6~---66-----|




VERSE 1:

 'Ten...'
 |1  2  3  4  |1  2  3  4  |1  2  3  4  |1  2  3  4  |
G|------------|------------|------------|------------|
D|------------|------------|------------|------------|
A|6--6--6--6~/|9--9-x4--4--|6--6--6--6~/|9--9-x4--4--|
E|------------|------------|------------|------------|


    'One...'
 |1  2  3  4  |1  2  3  4  |1  2  3  4  |1  2  3  4  |
G|------------|------------|------------|------------|
D|------------|------------|------------|------------|
A|6--6--6--6~/|9--9-x4--4--|6--6--6--6~/|9--9-x4--4--|
E|------------|------------|------------|------------|



 |1  2  3  4  |1  2  3  4  |1  2  3  4  |1  2  3  4  |
G|------------|------------|------------|------------|
D|------------|------------|------------|------------|
A|6--6--6--6~/|9--9-x4--4--|6--6--6--6~/|9--9-x4--4--|
E|------------|------------|------------|------------|


                                                 'Oh -
 |1  2  3  4  |1  2  3  4  |1  2  3  4  |1  2  3  4  |
G|------------|------------|------------|------------|
D|------------|------------|------------|------------|
A|6--6--6--6~/|9--9-x4--4--|6--6--6--6~/|9--9-x4--4--|
E|------------|------------|------------|------------|


CHORUS 1:

- Lord'
 |1  2  3  4  |1  2  3  4  |1  2  3  4  |1  2  3  4  |
G|------------|------------|------------|------------|
D|------------|6--6--6--6--|4--4--4--4--|------------|
A|6--6--6--6-6|-----------4|------------|8--8--8--8--|
E|------------|------------|------------|------------|



 |1  2  3  4  |1  2  3  4  |1  2  3  4  |1  2  3  4  |
G|------------|------------|------------|------------|
D|------------|6--6--6--6--|4--4--4--4--|8--8--8--8--|
A|6--6--6--6--|------------|------------|------------|
E|------------|------------|------------|------------|



 |1  2  3  4  |1  2  _3  4  |1  2  3  4  |1  2  3  4  |
G|------------|-------------|------------|------------|
D|------------|4--4-4/8-88-8|------------|4--4-43-33-3|
A|6--6-64-44-4|-------------|6--6-64-44-4|------------|
E|------------|-------------|------------|------------|



 |1  2  3  4  |1  2  3  4  _|1  2  3  4  |1  2  3  4  |
G|--------6---|-------------|------------|------------|
D|---8-----6--|---4-----3---|------------|4--4-4------|
A|6-6--64----4|2-2--21-1--1/|6--6-64-44-4|------------|
E|------------|-------------|------------|------6-66-6|
                   (2-1)



BRIDGE TO VERSE 2:

'Cuckoo'                                         'Cuckoo'
 |1  2  3  4  |1  2  3  4  |1  2  3  4  |1  2  3  4  |
G|------------|------------|------------|------------|
D|------------|------------|------------|------------|
A|6~---66-----|6~---66-----|6~---66-----|6~---66-----|
E|------------|------------|------------|------------|


                     'Cuckoo'                  'Cuckoo'
 |1  2  3  4  |1  2  3  4  |1  2  3  4  |1  2  3  4  |
G|------------|------------|------------|------------|
D|------------|------------|------------|------------|
A|6~---66-----|6~---66-----|------------|------------|
E|------------|------------|6~---66-----|6~---66-----|




VERSE 2:

 'You...'
 |1  2  3  4  |1  2  3  4  |1  2  3  4  |1  2  3  4  |
G|------------|------------|------------|------------|
D|------------|------------|------------|------------|
A|6--6--6--6~/|9--9-x4--4--|6--6--6--6~/|9--9-x4--4--|
E|------------|------------|------------|------------|


   'Will...'
 |1  2  3  4  |1  2  3  4  |1  2  3  4  |1  2  3  4  |
G|------------|------------|------------|------------|
D|------------|------------|------------|------------|
A|6--6--6--6~/|9--9-x4--4--|6--6--6--6~/|9--9-x4--4--|
E|------------|------------|------------|------------|



 |1  2  3  4  |1  2  3  4  |1  2  3  4  |1  2  3  4  |
G|------------|------------|------------|------------|
D|------------|------------|------------|------------|
A|6--6--6--6~/|9--9-x4--4--|6--6--6--6~/|9--9-x4--4--|
E|------------|------------|------------|------------|


                                                 'Oh -                                   
        ('Oh  -
 |1  2  3  4  |1  2  3  4  |1  2  3  4  |1  2  3  4  |
G|------------|------------|------------|------------|
D|------------|------------|------------|------------|
A|6--6--6--6~/|9--9-x4--4--|6--6--6--6~/|9--9-x4--4--|
E|------------|------------|------------|------------|


CHORUS 2:

- Lord'
 |1  2  3  4  |1  2  3  4  |1  2  3  4  |1  2  3  4  |
G|------------|------------|------------|------------|
D|------------|6--6--6--6--|4--4--4--4--|------------|
A|6--6--6--6-6|-----------4|------------|8--8--8--8--|
E|------------|------------|------------|------------|



 |1  2  3  4  |1  2  3  4  |1  2  3  4  |1  2  3  4  |
G|------------|------------|------------|------------|
D|------------|6--6--6--6--|4--4--4--4--|8--8--8--8--|
A|6--6--6--6--|------------|------------|------------|
E|------------|------------|------------|------------|



 |1  2  3  4  |1  2  _3  4  |1  2  3  4  |1  2  3  4  |
G|------------|-------------|------------|------------|
D|------------|4--4-4/8-88-8|------------|4--4-43-33-3|
A|6--6-64-44-4|-------------|6--6-64-44-4|------------|
E|------------|-------------|------------|------------|



 |1  2  3  4  |1  2  3  4  _|1  2  3  4  |1  2  3  4  |
G|--------6---|-------------|------------|------------|
D|---8-----6--|---4-----3---|------------|4--4-4------|
A|6-6--64----4|2-2--21-1--1/|6--6-64-44-4|------------|
E|------------|-------------|------------|------6-66-6|
                   (2-1)




MIDDLE 8:
                      'We  -
 |1  2  3  4  |1  2  3  4  |
G|W  A  I  T  |W  A  I  T  |
D|W  A  I  T  |W  A  I  T  |
A|W  A  I  T  |W  A  I  T  |
E|W  A  I  T  |W  A  I  T  |


 -are...'
 |1  2  3  4  |1  2  3  4  |1  2  3  4  |1  2  3  4  |
G|------------|------------|------------|------------|
D|3--3--3--3--|3--3--3--3--|1--1--1--1--|1--1--1--1--|
A|------------|------------|------------|------------|
E|------------|------------|------------|------------|



 |1  2  3  4  |1  2  3  4  |1  2  3  4  |1  2  3  4  |
G|------------|------------|------------|------------|
D|4--4--4--4--|4--4--4--4--|3--3--3--3--|------------|
A|------------|------------|------------|------------|
E|------------|------------|------------|6--6--6--6--|



CHORUS 3/ENDING:

 |1  2  3  4  |1  2  _3  4  |1  2  3  4  |1  2  3  4  |
G|------------|-------------|------------|------------|
D|------------|4--4-4/8-88-8|------------|4--4-43-33-3|
A|6--6-64-44-4|-------------|6--6-64-44-4|------------|
E|------------|-------------|------------|------------|



 |1  2  3  4  |1  2  3  4  _|1  2  3  4  |1  2  3  4  |
G|--------6---|-------------|------------|------------|
D|---8-----6--|---4-----3---|------------|4--4-4------|
A|6-6--64----4|2-2--21-1--1/|6--6-64-44-4|------------|
E|------------|-------------|------------|------6-66-6|
                   (2-1)



 |1  2  3  4  |1  2  _3  4  |1  2  3  4  |1  2  3  4  |
G|------------|-------------|------------|------------|
D|------------|4--4-4/8-88-8|------------|4--4-43-33-3|
A|6--6-64-44-4|-------------|6--6-64-44-4|------------|
E|------------|-------------|------------|------------|


                                                        'Cuckoo'
 |1  2  3  4  |1  2  3  4  _|1  2  3  4  |1  2  3  4  |1  2  3  4  ||
G|--------6---|-------------|------------|------------|------------||
D|---8-----6--|---4-----3---|------------|4--4-4------|------------||END
A|6-6--64----4|2-2--21-1--1/|6--6-64-44-4|------------|6-----------||
E|------------|-------------|------------|------6-66-6|------------||
                   (2-1)
comments
We did not receive enough feedback on this tab! Please rate:
print report bad tab
1 2 3 4 5
I want to post or [tab]
guest
You may want to rate the tab now too:
select rating
Please do not post tabs as comments. Select "correction" instead!