Oops, an error
Loading. Please wait.

Cinco Pistolas Tab

7 views 1 this week
no commentswrite comment
1 2 3 4 5
3 more votes to show rating
add to favorites
launch autoscroll
font size
0
reset
how to read this tab
guitar tuner
×
Best way to learn
"Cinco Pistolas"
Autoscroll
slow
fast
+/-
esc
set tempo
stop
E  ------------------------------------------------------
B  ------------------------------------------------------
G  ------------------------------------------------------
D  -------1---1-3-4-5-4-3-----------1---1-3-4-5-4-3------
A  -3-333---3-------------3-333---3----------------------
E  ------------------------------------------------------


Bm                G
soy un ruta no tengo destinos
un tipo sin tipo contra el camino
un caracol sin su vestido
una pasion en el bolsillo
y llevo mi alma a todo sitios
cinco pistolas son mis sentidos

E  ------------------------------------------------------
B  ------------------------------------------------------
G  ------------------------------------------------------
D  -------1---1-3-4-5-4-3-------------------------------
A  -3-333---3-------------------------------------------
E  ------------------------------------------------------

Bm                   G
cinco pistolas son mis sentidos

C#m    A            C#m
si te vas nunk volveras
un lugar lleva a otro lugar
contra el mar una luna hay
moriras nunk moriras
[ch]E amor eres MI[/ch] amor
mi dolor eres mi dolor

E  ------------------------------------------------------
B  ------------------------------------------------------
G  ------------------------------------------------------
D  ------------------------------------------------------
A  -3-333---3-1-3----------------------------------------
E  ---------------3-4-4-4-3-1----------------------------

porque soy
un pequeño hombre perdido
cuento monedas debajo de un pino
no soy un galan no soy un gamin
y cinco pistolas son mis sentidos

si te vas nunk volveras
un lugar lleva a otro lugar
contra el mar una luna hay
moriras nunk moriras
[ch]E amor eres MI[/ch] amor
mi dolor eres mi dolor

E  ------------------------------------------------------
B  ------------------------------------------------------
G  ------------------------------------------------------
D  ------------------------------------------------------
A  -3-333---3-1-3----------------------------------------
E  ---------------3-4-4-4-3-1----------------------------

voy dejando todo a un lado
voy juntando mis caminos
solo quiero ser un pajaro
y si vuelo voy contigo
y si vuelo voy contigo
cinco pistolas son mis sentidos que
cinco pistolas son mis sentidos

si te vas nunk volveras
un lugar lleva a otro lugar
contra el mar una luna hay
moriras nunk moriras
[ch]E amor eres MI[/ch] amor
mi dolor eres mi dolor (bis)

E  ------------------------------------------------------
B  ------------------------------------------------------
G  ------------------------------------------------------
D  ------------------------------------------------------
A  -3-333---3-1-3----------------------------------------
E  ---------------3-4-4-4-3-1----------------------------


llevo mi alma a todos sitios (bis//)


[ch]B[/ch] te vas
un lugar
contra el mar
moriras
[ch]E[/ch] amor
mi dolor
Suggest correction
Give kudos to tab author, rate the tab!
1 2 3 4 5
comments
print report bad tab
guest
You may want to rate the tab now too:
select rating
Wanna post a correction for this tab? Suggest correction