Oops, an error
Loading. Please wait.

Gallery Bass Tab

555 views 1 this week
no commentswrite comment
1 2 3 4 5
please rate
add to favorites
launch autoscroll
font size
0
reset
guitar tuner
Autoscroll
slow
fast
+/-
esc
set tempo
stop
Help us to improve Ultimate-Guitar.com Take our survey!
×
Author
Difficulty
-------------------------------------------------------------------------------
			     GALLERY - Mario Vasquez
-------------------------------------------------------------------------------

Tabbed By : Ben
e-mail: musicalracerpup@yahoo.com

Tuning: Normal

INTRO:
G|------------------|
D|------------------|
A|------------------|
E|-5-0-5-0-5-0-5-0--|

VERSE:
G|----------0-----|
D|----------------|  Repeat 3 Times
A|-------8--------|
E|-5--8--------5--|

CHORUS:
G|----------0-----------------|
D|----------------------------|
A|-------8-----------8--------|
E|-5--8--------5--8-----3--5--|

VERSE:
G|----------0-----|
D|----------------|   Repeat 3 Times
A|-------8--------|
E|-5--8--------5--|

CHORUS:
G|----------0-----------------|
D|----------------------------|
A|-------8-----------8--------|
E|-5--8--------5--8-----3--5--|

BRIDGE:
G|----------------------|
D|----0-----0-----------|
A|----------------8--8--|
E|-5-----5-----5--------|

CHORUS:
G|----------0-----------------|
D|----------------------------|   Repeat 1 Time
A|-------8-----------8--------|
E|-5--8--------5--8-----3--5--|

ENDING:
G|----------------|
D|----------------|
A|----------------|
E|-5--0--5--0--5--|

This is my first try at doing a tab so any feedback would be appreciated.
Suggest correction
Give kudos to tab author, rate the tab!
1 2 3 4 5
comments
print report bad tab
guest
You may want to rate the tab now too:
select rating
Please do not post tabs as comments. Select "correction" instead!