Oops, an error
Loading. Please wait.

Gallery Tab

version 1
version 1

Whole song

3,942 views 1 this week
1 commentread comment
1 2 3 4 5
please rate
add to favorites
launch autoscroll
font size
0
reset
how to read this tab
guitar tuner
Autoscroll
slow
fast
+/-
esc
set tempo
stop
Help us to improve Ultimate-Guitar.com Take our survey!
×
Author
Difficulty
novice
-------------------------------------------------------------------------------
                         GALLERY - Mario Vasquez
-------------------------------------------------------------------------------
Tabbed by:Sound Mind
Email:kagenecros@hotmail.com

Tuning:Standard

e|---------------------------------------------------------------------------|
B|---------------------------------------------------------------------------|
G|---------------------------------------------------------------------------|
D|--10-9-10-(7)--------------------------------------------------------------|
A|7--------------------------------------------------------------------------|
E|---------------------------------------------------------------------------|

e|---------------------------------------------------------------------------|
B|---------------------------------------------------------------------------|
G|---------------------------------------------------------------------------|
D|---10-9-10-(7)-------------------------------------------------------------|
A|7--------------------------------------------------------------------------|
E|---------------------------------------------------------------------------|

e|---------------------------------------------------------------------------|
B|---------------------------------------------------------------------------|
G|---------------------------------------------------------------------------|
D|---10-9-10-(7)-------------------------------------------------------------|
A|7--------------------------------------------------------------------------|
E|---------------------------------------------------------------------------|

e|---------------------------------------------------------------------------|
B|----------9----------------------------------------------------------------|
G|---------------------------------------------------------------------------|
D|--10-9-10------------------------------------------------------------------|
A|7--------------------------------------------------------------------------|
E|---------------------------------------------------------------------------|

This is the main tune in the song, just repeat and in the verses try to find 
the chords that match this. (the 7's in parentheses do not have to be played
but they sound great there and it all fits in the scale, in the song they are
only played in the outro)

http://www.mariovazquezofficial.com/

| /  slide up
| \  slide down
| h  hammer-on
| p  pull-off
| ~  vibrato
| +  harmonic
| x  Mute note
===============================================================================
Suggest correction
Give kudos to tab author, rate the tab!
1 2 3 4 5
comments
print report bad tab
1 comment total.
0 reply
Warby85 10 wrote on January 29 2007, 01:49 pm

you've almost got the intro right, you're somewhat there, but still it doesn't sound like the song and it's only the first part of it and not the whole song =(

guest
You may want to rate the tab now too:
select rating
Please do not post tabs as comments. Select "correction" instead!