Oops, an error
Loading. Please wait.

Are We Renegade Bass Tab

425 views 1 this week
1 commentread comment
1 2 3 4 5
please rate
add to favorites
launch autoscroll
font size
0
reset
guitar tuner
Autoscroll
slow
fast
+/-
esc
set tempo
stop
Help us to improve Ultimate-Guitar.com Take our survey!
×
Author
Band: Maritime
Album: Heresy And The Hotel Choir
Song: Are We Renegade

Please Rate

~ = let ring

Verse 1 (0:05)

G|----------------------|
D|----------------------| 
A|-4---4-4--------2-2---| 
E|---4--4--00-2-2--4-00-|

G|----------------------|
D|----------------------| 
A|-4---4-4---------2----| 
E|---4--4--00-2-2----0--|

G|----------------------|
D|----------------------| 
A|-4---4-4--------2-2---| 
E|---4--4--00-2-2--4-00-|

G|----------------------|
D|----------------------| 
A|-4---4-4---------2----| 
E|---4--4--00-2-2----0--|

G|----------------------|
D|----------------------| 
A|-4---4-4-------42-2---| 
E|---4--4--00-2-2--4-40-|

G|----------------------|
D|-------------------2--| 
A|-4---4-4--------42----| 
E|---4--4--00-2-2-------|

G|----------------------|
D|----------------------| 
A|-4---4-4--------2-2---| 
E|---4--4--00-2-2--4-00-|

G|----------------------|
D|----------------------| 
A|-4---4-4---------2----| 
E|---4--4--00-2-2----0--|

G|----------------------|
D|----------------------| 
A|-4---4-4-------42-2---| 
E|---4--4--00-2-2--4-40-|

G|----------------------|
D|-------------------2--| 
A|-4---4-4--------42----| 
E|---4--4--00-2-2-------|

Chorus (1:04)

G|-----------------------------------|
D|----------------------4---4-4/94---| 
A|-----------------22222-222-2-----2-| (half time)
E|-5555555522222222------------------|

G|-----------------------------------|
D|-----------------------------------| 
A|-444444444444444422222222222222222-| 
E|-----------------------------------|

G|-----------------------------------|
D|-----------------------------------| 
A|-0000000000000000------------------|
E|-----------------22222222222222222-|

Pause

Verse 2 (1:32)

G|----------------------|
D|----------------------| 
A|-4---4-4---------2----| 
E|---4--4--00-2-2----0--|

G|----------------------|
D|-----------------4----| 
A|-4---4-4--------2-2---| 
E|---4--4--00-2-2----40-|

G|----------------------|
D|----------------------| 
A|-4---4-4-------4-2----| 
E|---4--4--00-2-2----0--|

G|----------------------|
D|----------------------| 
A|-4---4-4-------42-2---| 
E|---4--4--00-2-2--4-40-|

G|----------------------|
D|-------------------2--| 
A|-4---4-4--------42----| 
E|---4--4--00-2-2-------|

Chorus 2 (2:02)

G|-----------------------------------|
D|----------------------4---4-4/94---| 
A|-----------------22222-222-2-----2-| (half time)
E|-5555555522222222------------------|

G|-----------------------------------|
D|-----------------------------------| 
A|-444444444444444422222222222222222-| 
E|-----------------------------------|

G|-----------------------------------|
D|-----------------------------------| 
A|-0000000000000000------------------|
E|-----------------22222222222222222-|

G|-----------------------------------|
D|-----------------------------------| 
A|-444444444444444422222222222222222-| 
E|-----------------------------------|

G|-----------------------------------|
D|-----------------------------------| 
A|-0000000000000000------------------|
E|-----------------22222222222222222-|

G|-----------------------------------|
D|-----------------------------------| 
A|-444444444444667722222222222222222-| 
E|-----------------------------------| 

G|-----------------------------------|
D|-----------------------------------| 
A|-0000000000000000------------------|
E|-----------------22222222222222222-|

Pause 

Bridge (2:58) x4

G|-----------------------------------|
D|-----------------------------------| 
A|-444444444444667722222222222224422-| 
E|-----------------------------------| 

G|-----------------------------------|
D|-----------------------------------| 
A|-0000000000002244------------------|
E|-----------------22222222222222200-|

End note:

G|----|
D|----|
A|-4~-| 
E|----| 


Suggest correction
Give kudos to tab author, rate the tab!
1 2 3 4 5
comments
print report bad tab
1 comment total.
0 reply
keneticshark24 135 wrote on April 23 2008, 01:49 pm

Awesome - more Maritime bass tabs please!

guest
You may want to rate the tab now too:
select rating
Please do not post tabs as comments. Select "correction" instead!