Oops, an error
Loading. Please wait.

Hours That You Keep Bass Tab

279 views 1 this week
no commentswrite comment
1 2 3 4 5
please rate
add to favorites
launch autoscroll
font size
0
reset
guitar tuner
Autoscroll
slow
fast
+/-
esc
set tempo
stop
Help us to improve Ultimate-Guitar.com Take our survey!
×
Contributor
chrisjenks 2,376
Band: maritime
Album: heresy and the hotel choir
Song: hours that keep you

Sorry, the timing isn’t perfect
corrections are welcome

Please rate

Intro (0:03)

G|----------------------------------|
D|---------7---5-4------------------| 
A|-5-55-55---------2---4-5----------|
E|-------------------------3-2-3-2--|

G|----------------------------------|
D|---------7---5-4------------------| 
A|-5-55-55---------2---4-5----------|
E|-------------------------3---3----|

Verse (0:14) x2

G|----------------------------------|
D|---------7---5-4------------------| 
A|-5-55-55---------2---4-5----------|
E|-------------------------3-2-3-2--|

G|----------------------------------|
D|---------7---5-4------------------| 
A|-5-55-55---------2---4-5----------|
E|-------------------------3-3-3-3--|

Pre-chorus (0:32)

G|------------------------------------------------------------------|
D|-----------------------------------------5---4-2---------5---4-2--| 
A|-------------------------------0-22222222--------2-222222---------|
E|-33333333333333333333333333333------------------------------------|

G|------------------------------------------------------------------|
D|---------------------------------------------------------2---0----| 
A|-------------------------------2-000000000000000000000000------4--|
E|-33333333333333333333333333333------------------------------------|

Chorus (0:49)

G|------------------------------------------------------|
D|------------------------------------------------------| 
A|-----------------7-77777777777-9-7-2-22222222222-4-2--|
E|-3-33333333333333-------------------------------------|

G|------------------------------------------------------|
D|-----------------------------------------5---5-55-----|
A|-0-00000000000000----------------5----------------5~--|
E|-----------------3-33333333333333----3----------------|

pause

G|----------|
D|----------|
A|----------|
E|-3---3----|

Repeat:

Verse(1:07) x2
Pre-chorus (1:25)
Chorus (1:43)

Ending (1:56) :

G|----------------------------------|
D|---------7---5-4------------------| 
A|-5-55-55---------2---4-5----------|
E|-------------------------3-2-3-2--|

G|----------------------------------|
D|---------7---5-4------------------| 
A|-5-55-55---------2---4-5-7---9-7--|
E|----------------------------------|

G|----------------------------------|
D|---------7---5-4------------------| 
A|-5-55-55---------2---4-5-7---5-4--|
E|----------------------------------|

G|----------------------------------|
D|---------7---5-4------------------| 
A|-5-55-55---------2---4-5--------5~|
E|-------------------------3---3----|
comments
We did not receive enough feedback on this tab! Please rate:
print report bad tab
1 2 3 4 5
I want to post or [tab]
guest
You may want to rate the tab now too:
select rating
Please do not post tabs as comments. Select "correction" instead!