Oops, an error
Loading. Please wait.

Love Has Given Up Bass Tab

483 views 1 this week
no commentswrite comment
1 2 3 4 5
excellent!
x 1
add to favorites
launch autoscroll
font size
0
reset
guitar tuner
Tab Pro tools
  • play this tab
  • loop segment
  • change instrument
  • show fretboard
  • metronome
Autoscroll
slow
fast
+/-
esc
set tempo
stop
Contributor
Band: Maritime	
Album: Heresy And The Hotel Choir
Song: Love Has Given Up

~ = let ring

Please Rate!

Corrections are welcome

Verse 0:04

G|------------------------------------------------------------------|
D|------------------------------------------------------------------| 
A|------------------------------------------------------------------|
E|-466-666-466-666-466-666-466-4646-77-777-677-777-677-777-677-6767-|

G|------------------------------------------------------------------|
D|------------------------------------------------------------------| 
A|---------------------------------66666666666666666666666666666666-|
E|-99999999999999999999999999999999---------------------------------|

G|------------------------------------------------------------------|
D|------------------------------------------------------------------| 
A|------------------------------------------------------------------|
E|-466-666-466-666-466-666-466-4646-77-777-677-777-677-777-677-6767-|

G|------------------------------------------------------------------|
D|------------------------------------------------------------------| 
A|---------------------------------66666666666666666666666666666666-|
E|-99999999999999999999999999999999---------------------------------|

G|------------------------------------------------------------------|
D|------------------------------------------------------------------| 
A|------------------------------------------------------------------|
E|-466-666-466-666-466-666-466-4646-77-777-677-777-677-777-677-6767-|

G|----------------------------------|
D|----------------------------------| 
A|----------------------------------|
E|-99999999999999999999999999999999-|

Chorus 1:09

G|------------------------------------------------------------------|
D|-------------------------6664----------------------------4443--4--|
A|-----------------44444444------6--------------66644444444---------|
E|-4444444444444444----------------4444444444444--------------------|

G|----------------------------------|
D|-------------6664-----------------|
A|-------------------6-4~~----------|
E|-444444444444---------------------|

Pause, then:

Verse 1:34

G|----------------------------------|
D|----------------------------------| 
A|----------------------------------|
E|-677-777-677-777-677-777-677-6767-|

G|------------------------------------------------------------------|
D|------------------------------------------------------------------| 
A|------------------------------------------------------------------|
E|-466-666-466-666-466-666-466-4646-77-777-677-777-677-777-677-6767-|

G|------------------------------------------------------------------|
D|------------------------------------------------------------------| 
A|---------------------------------66666666666666666666666666666666-|
E|-99999999999999999999999999999999---------------------------------|

Chorus 2:04

G|------------------------------------------------------------------|
D|-------------------------6664----------------------------4443--4--|
A|-----------------44444444------6--------------66644444444---------|
E|-4444444444444444----------------4444444444444--------------------|

G|----------------------------------|
D|---------6664---------------------|
A|---------------6-4444444444444444-|
E|-44444444-------------------------|

G|------------------------------------------------------------------|
D|------------------------------------------------------------------| 
A|-2222222211111111--------666666662222222211111111--------66666666-|
E|-----------------44444444------------------------44444444---------|

2:32

G|------------------------------------------------------------------|
D|---------------------------------------------------------6664-----| 
A|---------------------------------444444444444444444444444------6--|
E|-44444444444444444444444444444444---------------------------------|

2:43

G|------------------------------------------------------------------|
D|-------------------------6664----------------------------4443--4--|
A|-----------------44444444------6--------------66644444444---------|
E|-4444444444444444----------------4444444444444--------------------|

G|------------------------------------------------------------------|
D|---------6664-----------------------------------------------------|
A|---------------6-4444444444444444---------------------------------|
E|-44444444-------------------------6~~~~~--------------------------|

Pause

Last Chorus 3:12

G|------------------------------------------------------------------|
D|-------------------------6664----------------------------4443--4--|
A|-----------------44444444------6--------------66644444444---------|
E|-4444444444444444----------------4444444444444--------------------|

G|------------------------------------------------------------------|
D|-------------------------6664----------------------------4443--4--|
A|-----------------44444444------6--------------66644444444---------|
E|-4444444444444444----------------4444444444444--------------------|

G|------------------------------------------------------------------|
D|-------------------------6664----------------------------4443--4--|
A|-----------------44444444------6--------------66644444444---------|
E|-4444444444444444----------------4444444444444--------------------|

G|----------------------------------|
D|---------6664---------------------|
A|---------------6-4~~~~------------|
E|-44444444-------------------------|
comments
We did not receive enough feedback on this tab! Please rate:
print report bad tab
1 2 3 4 5
I want to post or [tab]
guest
You may want to rate the tab now too:
select rating
Please do not post tabs as comments. Select "correction" instead!