Oops, an error
Loading. Please wait.

Parade Of Punk Rock T-Shirts Tab

version 2
version 2

Whole song

2,568 views 4 this week
2 commentsread comments
1 2 3 4 5
accurate
x 4
add to favorites
launch autoscroll
font size
0
reset
how to read this tab
guitar tuner
Tab Pro tools
  • play this tab
  • loop segment
  • change instrument
  • show fretboard
  • metronome
×
Best way to learn
"Parade Of Punk Rock T-shirts"
Autoscroll
slow
fast
+/-
esc
set tempo
stop
Contributor
Difficulty
Capo
intermediate
7th fret
-------------------------------------------------------------------------------
                                      PARADE OF PUNK ROCK T SHIRTS - Maritime
-------------------------------------------------------------------------------
Tabbed by: sizzlexc
Email: sdonovanxc@hotmail.com

I LOVE this song!
I was looking up the tab for it online, and the non-capo versions didn't satisfy me. He 
this song with a capo during his LIVE shows. This is my attempt, hope you like it!

Tuning: standard

CAPO ON 7th FRET

First Guitar --
e|--x--x-0--0-x---0--0--0-x---0--0--0-x---3--3--3-x-------|
B|--x--x-1--1-x---1--1--1-x---1--1--1-x---3--3--3-x-------|
G|--x--x-2--2-x---0--0--0-x---2--2--3-x---4--4--4-x-------|
D|--x--x-3--3-x---2--2--2-x---3--3--3-x---5--5--5-x-------|
A|--x--x-3--3-x---3--3--3-x---3--3--3-x---5--5--5-x-------|
E|--0--0-1--1-x---x--x--x-x---1--1--1-x---3--3--3-x-------|

This first guitar repeats throughout the whole song, except for slight change during solo.

The SECOND GUITAR -- (Also with CAPO on 7th) comes in at 0:34 into the song.
Right before, "So I can stop running and the air can hum..."
e|--------------------------------------------------------|
B|---1---1---1---1----------0---0---3p\--0----------------|
G|-0---0---0---0---0------0---0---0---0-------------------|
D|--------------------------------------------------------|
A|--------------------------------------------------------|
E|--------------------------------------------------------|

x 3

The 4th time, at 0:46 -- "onnnnnnnnnnn...."
e|-----------------------------3---3---3-----------------|
B|---1---1---1---1----------0p---------------------------|
G|-0---0---0---0---0---------0---0---0---0---------------|
D|-------------------------------------------------------|
A|-------------------------------------------------------|
E|-------------------------------------------------------|

THEN,

2nd Guitar --
0:50 -- Chorus: "When you can't break through". Play on the half beat.
e|------------------------------------------3--3--3-------|
B|---1--1--1--1--1--1--1--1--1--1--1--1--1--0--0--0-------|
G|---2--2--2--2--2--2--0--0--2--2--2--2--2--0--0--0-------|
D|---3--3--3--3--3--3--2--2--3--3--3--3--3--0--0--0-------|
A|------------------------------------------2--2--2-------|
E|------------------------------------------3--3--3-------|

x 2

Repeat whole Second guitar part at 1:17
Right before -- "So I can stop running and the air can hum"

Solo at 1:55
"Should I feel"
First guitar plays
e|--0--0--0------0--0--0------0--0--0--------3--3--3-------0--|
B|--1--1--1------1--1--1------1--1--1--------3--3--3-------1--|
G|--2--2--2------0--0--0------2--2--3--------0--0--0-------2--|
D|--3--3--3--x4--2--2--2--x4--3--3--3---x4---0--0--0--x4---3--|
A|--3--3--3------3--3--3------3--3--3--------2--2--2-------3--|
E|--1--1--1------x--x--x------1--1--1--------3--3--3-------1--|

Second guitar plays:
e|------------------------------------------------------------|
B|---1---1---1---1---1---1---1----1---1---1---1---1---1---1---|
G|-2---2---2---2---2---2---2----1---1---1---1---1---1---1-----|
D|------------------------------------------------------------|
A|------------------------------------------------------------|
E|------------------------------------------------------------|

e|--------------------------------------------------------------|
B|---1---1---1---1---1---1---1----1---1---1---1---1---1---1-----|
G|-0---0---0---0---0---0---0------------------------------------|
D|------------------------------4---4---4---4---4---4---4-------|
A|--------------------------------------------------------------|
E|--------------------------------------------------------------|
Both End Solo on F, 1-3-3-2-1-0---------------------------------|

Then
First Guitar --
e|--0--0-x---0--0--0-x---0--0--0-x---3--3--3-x-------|
B|--1--1-x---1--1--1-x---1--1--1-x---3--3--3-x-------|
G|--2--2-x---0--0--0-x---2--2--3-x---4--4--4-x-------|
D|--3--3-x---2--2--2-x---3--3--3-x---5--5--5-x-------|
A|--3--3-x---3--3--3-x---3--3--3-x---5--5--5-x-------|
E|--1--1-x---x--x--x-x---1--1--1-x---3--3--3-x-------|

2nd Guitar --
2:20- 2:26
e|--0----------------------3---3--------|
B|--1-----------------0p-0---0----------|
G|--2-(hold)-------------0---0----------|
D|--3-----------------------------------|
A|--3-----------------------------------|
E|--1-----------------------------------|

2:27 "When you can't break through". Play on the half beat.
e|------------------------------------------3--3--3-------|
B|---1--1--1--1--1--1--1--1--1--1--1--1--1--0--0--0-------|
G|---2--2--2--2--2--2--0--0--2--2--2--2--2--0--0--0-------|
D|---3--3--3--3--3--3--2--2--3--3--3--3--3--0--0--0-------|
A|------------------------------------------2--2--2-------|
E|------------------------------------------3--3--3-------|

End song on F
1-3-3-2-1-0


ENJOY!

Lyrics:

I think we can fly and swallow fire
Blow smoke and hold our breath for as long as it takes
Every hello is goodbye
As we exchange strangers and lies
For estranged lovers and time
All loved ones get held up
So I can stop running and the air can hum
The busy sister's stunning, won't she be stunned
By the infinite parade of punk rock t-shirts on
When you can't break through
With the one that you want

If we survive, are we free
Of the dumb luck that surrounds us?
And we get stuck between the places I messed up
So I can stop running and the air can hum
The busy sister's stunning, won't she be stunned
By the infinite parade of punk rock t-shirts on
When you can't break through
With the one that you want
No you can't, you cannot know, you can't, you cannot
Should I feel flattered that you hate everything but me?
When you can't break through
With the one that you want
No you can't, you cannot know


| /  slide up
| \  slide down
| h  hammer-on
| p  pull-off
| ~  vibrato
| +  harmonic
| x  Mute note
===============================================================================
comments
print report bad tab
2 comments total.
0 reply
spoogiemoto wrote on June 16 2010, 09:30 pm

Thanks for the tab bro, I've always wanted to play this song.

For the third chord, I used a regular Am so there is more of a differentiation between the 1st and 3rd chord. It sounds good to me. Thanks for the post! Got anymore Maritime?

0 reply
fbarra wrote on July 18 2012, 12:47 am

everything is pretty good. except for the guitar 2 part during the verses.
it should be:


e|-------0~-------------------------------------------------
B|---1--------1----3h5p3--1~--------------------------------
G|-0---0----0---0-------------------------------------------
D|----------------------------------------------------------
A|----------------------------------------------------------
E|----------------------------------------------------------

I want to post or [tab]
guest
You may want to rate the tab now too:
select rating
Please do not post tabs as comments. Select "correction" instead!