Oops, an error
Loading. Please wait.

Morena Tropicana Tab

38 views 1 this week
no commentswrite comment
1 2 3 4 5
3 more votes to show rating
add to favorites
launch autoscroll
font size
0
reset
how to read this tab
guitar tuner
×
Best way to learn
"Morena Tropicana"
Autoscroll
slow
fast
+/-
esc
set tempo
stop
Este tab. esta un tanto correcto puede que tenga errores pero
suena muy bien desde LA PAZ un saludo a todos los amantes de la buena MÚSICA......
AQUÍ VA EL SOLO....


e---7---9-10---9-10-9---------------------10-13-13^--13^-13--10-------/
b--7-------------------12-12-10-10-----12------------------------12---/
g-7-------------------------------------------------------------------/
d---------------------------------------------------------------------/
a---------------------------------------------------------------------/
E---------------------------------------------------------------------/ 
continua asi
e-----10--9-10-9--------------------10-13-13^--13^-13--10-------------/
b----------------12-12--10-10----12------------------------12---------/
g--11-----------------------------------------------------------------/
d---------------------------------------------------------------------/  
a---------------------------------------------------------------------/
E---------------------------------------------------------------------/

e--------------9--12-14--12L14-12-10----10-10-9-9---------------------/
b-12-12--11-10------------------------------------12-12---------------/
g-------------------------------------------------------11------------/
d---------------------------------------------------------------------/  
a---------------------------------------------------------------------/
E---------------------------------------------------------------------/


e----------------------------------------9-12-10-9--------------------/
b----------------------------------10-12------------12-12-11-10-------/
g-12-11-9-11--9-11---9---------9-11-----------------------------------/
d----------------------12-10-12---------------------------------------/  
a---------------------------------------------------------------------/
E---------------------------------------------------------------------/
e-----10-13-13^-13^-13^-13^----13^-13^-13^-13^--13^-13-10-12^``-------/
b--12-----------------------------------------------------------------/
g---------------------------------------------------------------------/
d---------------------------------------------------------------------/  
a---------------------------------------------------------------------/
E---------------------------------------------------------------------/
Suggest correction
Give kudos to tab author, rate the tab!
1 2 3 4 5
comments
print report bad tab
guest
You may want to rate the tab now too:
select rating
Wanna post a correction for this tab? Suggest correction