Oops, an error
Loading. Please wait.

Negri Negri Tab

version 1
version 1

Solo

Interactive

12,628 views 9 this week
no commentswrite comment
1 2 3 4 5
please rate
add to favorites
launch autoscroll
font size
0
reset
how to read this tab
guitar tuner
Autoscroll
slow
fast
+/-
esc
set tempo
stop
Help us to improve Ultimate-Guitar.com Take our survey!
×
Contributor
yoosyoes 1,054
Song        : Negri Ngeri
Artist      : Marjinal

Tabbed by   : yoos
Email       : yoosyoes@yahoo.com
Blog        : yoosyoes.blogspot.com


Intro 1
e|------------------------------------------------------------------------------|
B|--5-5--5-5-5-5--5-5--5-5-5-5------5------5-6-6--6-6-6-6--8-6--5-5--6-5--------|
D|------------------------------7-7---7--7-------------------------------7-5-7--|
G|------------------------------------------------------------------------------|
A|------------------------------------------------------------------------------|
E|------------------------------------------------------------------------------|

e|-----------------------------------------------|
B|------------------5----------------5---5--/12--|
G|--5---5-7p5---5-7---7-5-7p5---5-7----7---------|
D|----7-------7---------------7------------------|
A|-----------------------------------------------|
E|-----------------------------------------------|

e|-----------------------5-------5----5-----------------------------|
B|--5-5--5-5-5-5--8--5-8---8-5-8---8----8-6-5---5----5--------------|
G|--------------------------------------------7---7----7-5-7-5---5--|
D|-------------------------------------------------------------7----|
A|------------------------------------------------------------------|
E|------------------------------------------------------------------|

e|------------------------------------------------------|
B|------------------------5-----------------5---5--/12--|
G|--7p5---5--7p5---5-7-5----7-5--7p5---5-7----7---------|
D|------7--------7-------------------7------------------|
A|------------------------------------------------------|
E|------------------------------------------------------|


Intro 2
e|------------------------------------------------------------------------------|
B|--5-5--5-5-5-5--5-5--5-5-5-5------5------5-6-6--6-6-6-6--8-6--5-5--6-5--------|
D|------------------------------7-7---7--7-------------------------------7-5-7--|
G|------------------------------------------------------------------------------|
A|------------------------------------------------------------------------------|
E|------------------------------------------------------------------------------|

e|------------------------------------------------------|
B|------------------------5-----------------5---5--/12--|
G|--7p5---5--7p5---5-7-5----7-5--7p5---5-7----7---------|
D|------7--------7-------------------7------------------|
A|------------------------------------------------------|
E|------------------------------------------------------|

e|-----------------------5---------5-----------------------------|
B|--5-5--5-5-5-5--8--5-8----8-5-8----8-6-5---5----5--------------|
G|-----------------------------------------7---7----7-5-7-5---5--|
D|----------------------------------------------------------7----|
A|---------------------------------------------------------------|
E|---------------------------------------------------------------|

e|------------------------------------------------------|
B|------------------------5-----------------5---5--/12--|
G|--7p5---5--7p5---5-7-5----7-5--7p5---5-7----7---------|
D|------7--------7-------------------7------------------|
A|------------------------------------------------------|
E|------------------------------------------------------|


Lead Guitar sebelum reff
e|-------------------------------------------------|
B|-------------------------------------------------|
G|--9-9--9-9-9-9--9-9--9-9-9-9--9-9--9-9-9-9--7-5--|
D|-------------------------------------------------|
A|--7-7--7-7-7-7--7-7--7-7-7-7--7-7--7-7-7-7--5-3--|
E|-------------------------------------------------|

Lead Guitar saat reff
e|----------------------------------------------------------|
B|----------------------------------------------------------|
G|--10-10--10-10-10-10-10-10--7-5--12-12--12-12-12-12--7-5--|
D|----------------------------------------------------------|
A|--8--8---8--8--8--8--8--8---5-3--10-10--10-10-10-10--5-3--|
E|----------------------------------------------------------|

e|----------------------------------------------|
B|----------------------------------------------|
G|--9-9--9-9-9-9--7-5--14-14--14-14-14-14--7-5--|
D|----------------------------------------------|
A|--7-7--7-7-7-7--5-3--12-12--12-12-12-12--5-3--|
E|----------------------------------------------|

e|-------------------------------------------------|
B|-------------------------------------------------|
G|--9-9--9-9-9-9--9-9--9-9-9-9--9-9--9-9-9-9--7-5--|
D|-------------------------------------------------|
A|--7-7--7-7-7-7--7-7--7-7-7-7--7-7--7-7-7-7--5-3--|
E|-------------------------------------------------|


Lead Guitar setelah reff
e|----------------------------------------------------------------------------------|
B|--10-10--10-10-10-10--12-12--12-12-12-12--13-13--13-13-13-13--12-12--12-12-12-12--|
G|----------------------------------------------------------------------------------|
D|--7--7---7--7--7--7---9--9---9--9--9--9---10-10--10-10-10-10--9--9---9--9--9--9---|
A|----------------------------------------------------------------------------------|
E|----------------------------------------------------------------------------------|


CHORD
=====

[intro] C5 G5 D5 A5 F5 C5 E5 2x

C5             G5
lihatlah negeri kita
D5             A5
yang subur dan kaya raya
F5             C5               
sawah ladang terhampar luas
  E5
samudera biru

C5                  G5
tapi lihatlah negeri kita
D5             A5
yang tinggal hanyalah cerita
F5          C5       E5
cerita dan cerita, terus cerita...

[chorus]
F5              G5             
pengangguran merebak luas
E5           A5
kemiskinan merajalela
F5               C5              E5
pedagang kaki lima tergusur teraniaya

F5                 G5
bocah-bocah kecil merintih
E5                 A5
menghabiskan waktu di jalanan
F5             C5         E5
buruh kerap dihadapi penderitaan


C5          G5 
inilah negeri kita
D5        A5              F5
alamnya kelam tiada berbintang
             C5             E5
dari derita dan derita menderita…

C5                 G5
sampai kapankah derita ini
D5          A5
yang kaya darah dan air mata
F5               C5          E5
yang senantiasa mewarnai bumi pertiwi


A5 G5 F5 E5
       dinodai 
A5 G5 F5 E5
       dikangkangi
A5 G5 F5 E5
       dikuasai
A5 G5 F5 E5
dijajah para penguasa rakus
comments
We did not receive enough feedback on this tab! Please rate:
print report bad tab
1 2 3 4 5
I want to post or [tab]
guest
You may want to rate the tab now too:
select rating
Please do not post tabs as comments. Select "correction" instead!