Oops, an error
Loading. Please wait.

Your Love Is A Miracle chords

283 views 12 this week
no commentswrite comment
1 2 3 4 5
2 more votes to show rating
add to favorites
×
Save as Personal and add changes to this tab that will be seen only by you. Learn more ›
×
You can save this tab as Personal to edit and correct it or add notes. All changes will be seen only by you. Learn more »
launch autoscroll
font size
0
reset
transpose
0
reset
display chords
guitar tuner
edit
Autoscroll
slow
fast
+/-
esc
set tempo
stop
About this tab version
A great little ditty by a country classic. Was this info helpful? Yes No
Strumming
There is no strumming pattern for this song yet. and get +5 IQ
[Intro]

  G             C             D         D
e|--------------------------------------------------|
B|--------------------------------------------------|
G|--------------------------------------------------|
D|---2---0------------------------------------------|
A|----------2---0---------------2--0-0--------------|
E|----------------3------0---3----------------------|


[Verse 1]

G          G
Out On The Highway
D        D               C   C
A Lot Of Pretty Girls Go By
    D                D*
But None Have Been Right
G        G
And Up Until Today
D       D            C      C
I Would Never Settle Down
             D
But You Keep Coming Around


[Chorus]

          G  C        D        C
 And  Your Love Is A Miracle
     D          D
It's Spiritual
C                  D
Got  Here  Just In Time
     G  C        D        C
Your Love Is A Miracle
     D      D
It's Visible
     C                D          G
Even To A Heart Thats Blind Like Mine


Repeat INTRO


[Verse 2]

G          G
Out In The Wild Life
D        D              C     C
A Lot Of People Telling Lies
        D              D*
Looking Right In Your Eyes
G        G
And Up Until Tonight
D      D            C     C
I Was Always On The Prowl
            D           D
But Now I'm Settling Down


[Chorus]

           G  C        D        C
 And  Your Love Is A Miracle
     D          D
It's Spiritual
C                  D
Got  Here  Just In Time
     G  C        D        C
Your Love Is A Miracle
     D      D
It's Visible
     C                D          G
Even To A Heart Thats Blind Like Mine


[Bridge]

G                          C
Anyone Can See What You're Doing To Me
G                            D          D
Everyone Can See That You're Everying I Need


[Chorus]

           G  C        D        C
 And  Your Love Is A Miracle
     D          D
It's Spiritual
C                  D
Got  Here  Just In Time
     G  C        D        C
Your Love Is A Miracle
   D      D
It's Visible
   C                D          G
Even To A Heart Thats Blind Like Mine


[Outro]

  G             C             D         D
e|--------------------------------------------------|
B|--------------------------------------------------|
G|--------------------------------------------------|
D|---2---0------------------------------------------|
A|----------2---0---------------2--0-0--------------|
E|----------------3------0---3----------------------|

[FILL]

    G             C             D         D
e|--------------------------------------------------|
B|--------------------------------------------------|
G|--------------------------------------------------|
D|---2---0------------------------------------------|
A|----------2---0---------------2--0-0--------------|
E|----------------3------0---3----------------------|

            
            
Suggest correction
Creating personal tab
Creating personal tab
You can edit any tab online and save it as your Personal.

You can edit, replace or remove any tab part or add personal notes – all changes will be seen only by you.

Personal tabs can be accessed anytime from any device, even offline.
Learn more »
Give kudos to tab author, rate the tab!
1 2 3 4 5
comments
print report bad tab
guest
You may want to rate the tab now too:
select rating
Wanna post a correction for this tab? Suggest correction