Oops, an error
Loading. Please wait.

In Time Tab

version 1
version 1

Whole song

Interactive

41,658 views 15 this week
11 commentsread comments
1 2 3 4 5
x 10
add to favorites
launch autoscroll
font size
0
reset
how to read this tab
guitar tuner
Autoscroll
slow
fast
+/-
esc
set tempo
stop
Help us to improve Ultimate-Guitar.com Take our survey!
×
Difficulty
novice
In Time
Artist: Mark Collie
Album: The Punisher OST
Tuning: D-A-D-G-A-D
----------------------------------------------------------
Repeat x2
             Dm           Dsus4  Dm             Am   
|--3----------3-------------5-----3--------|-----2-----3---5----------|
|---5---------5-------------5-----5--------|-----3-----5---5----------|
|----2--------2-------------2-----2--------|-----2-----2---2----------|
|-----0-------0-------------0-----0--------|-----0-----0---0----------|
|------0------0-------------------0--------|----(0)-------------------|
|-------0----(0)-----------------(0)-------|--------------------------|
            I can here what you're thinkin'...   ..Doubts and fear...     
   Dm        Dm  Dsus4 Dm    *
|---3---------3---5-----3----0---3---------|
|---5---------5---5-----5----3---5---------|
|---2---------2---2-----2----0---2---------|
|---0---------0---0-----0----2---0---------|
|---0------------------------3-------------|
|--(0)-------------------------------------|
             ... In time you'll find...
Chorus:
   Dm    Dsus2 Dm        Dsus2 Dm  
|---3---3---5---3---3---3---5---3----------|
|---5---5---5---5---5---5---5---5----------|
|---2---2---2---2---2---2---2---2----------|
|---0---0---0---0---0---0---0---0----------|
|------------------------------------------|
|------------------------------------------|
   In time all things...
   Am  Dm       Am  Dm
|---2---3--------2---3---------------------|
|---3---5--------3---5---------------------|
|---2---2--------2---2---------------------|
|---0---0--------0---0---------------------|
|------------------------------------------|
|------------------------------------------|
   To live once more...
  Dm         *
|--3---------0---------3-------------------|
|--5---------3----------5------------------|
|--2---------0-----------2-----------------|
|--0---------2------------0----------------|
|------------3-------------0---------------|
|---------------------------0--------------|
..In time...Be no more

* - Means that I don't know the name of the chord
** Keep in mind ** This is played in DADGAD tuning. So don't email me saying "Your
version of this song doesn't make sense".

That's it, the whole thing is just repeated. I don't know Mark Collie's interlude
thing, just listen to the song and figure it out for yourself. This has now inspired
me to
a) start writing in DADGAD
b) watch The Punisher again.
Since writing takes time, I'm going to do the latter right now.

Paz
dream_of_mirrors2005@hotmail.com

Note: This tab was meant for www.ultimate-guitar.com ONLY. No other websites are meant
to have this tablature.
Suggest correction
comments
print report bad tab
11 comments total. Showing first comments.
0 reply
pympniggy97 10 Jun 02, 2006 11:01 PM

awesome job dude!!

0 reply
wez himself 40 Nov 20, 2006 08:39 AM

umm the first part is an Am upstroke, you can see that in the movie

0 reply
niuguitarman 157 Dec 17, 2006 03:51 PM

it may look that way, but that's not how it sounds when you listen to it. probly just a mistake.

guest
You may want to rate the tab now too:
select rating
Wanna post a correction for this tab? Suggest correction