Oops, an error
Loading. Please wait.

Broken Out In Love Bass Tab

version 2
version 2

Whole song

3,372 views 63 this week
1 commentread comment
1 2 3 4 5
excellent!
x 4
add to favorites
launch autoscroll
font size
0
reset
guitar tuner
Tab Pro tools
  • play this tab
  • loop segment
  • change instrument
  • show fretboard
  • metronome
Autoscroll
slow
fast
+/-
esc
set tempo
stop
Contributor
____________________________________________________________________________________________

Song: "Broken Out In Love" (Live In Fear)
Artist: Mark Crozer & The Rels
Bassist: Wes Grasty
Tabbed by: TheBrokeBassist/Tydogg2443
Tuning: Standard (E, A, D, G)
Tempo: 110 bpm
*Author's Note: Now theme song for the Wyatts in WWE, the song was originally titled
"Broken Out In Love"(now titled "Live in Fear"). I saw there was another version already
available on U-G, but it is incorrect, and provides no help in terms of song structure and
order. This is very simple, straightforward, and correct. It follows a very basic blues
progression. I've also put together a video cover of the song, with tabs displayed on-screen.
You can find it here: http://www.youtube.com/watch?v=7mN_63y-FH4
____________________________________________________________________________________________


INTRO/VERSE 1 [0:00]
G|----------------|------------------|----------------|------------------|
D|----------------|------------------|----------------|------------------|
A|-----7---5--7---|-----7---5---5-7--|-----7---5--7---|-----7---5---5-7--| x5
E|-0-----7--------|-0-----7---7------|-0-----7--------|-0-----7---7------|

 [0:43]
 |----------------|------------------|
 |-----7---5--7---|-----7---5---5-7--|
 |-0-----7--------|-0-----7---7------| x2
 |----------------|------------------|

 [0:52]
 |----------------|------------------|
 |----------------|------------------|
 |-----7---5--7---|-----7---5---5-7--| x2
 |-0-----7--------|-0-----7---7------|


CHORUS [1:01]
G|----------------|----------------|----------------|----------------|
D|-----9---7--9---|-----9---7--9---|-----7---5--7---|-----7---5--7---|
A|-------9--------|-------9--------|-0-----7--------|-0-----7--------|
E|-7--------------|-7--------------|----------------|----------------|


VERSE 2 [1:09]
G|----------------|------------------|----------------|------------------|
D|----------------|------------------|----------------|------------------|
A|-----7---5--7---|-----7---5---5-7--|-----7---5--7---|-----7---5---5-7--| x3
E|-0-----7--------|-0-----7---7------|-0-----7--------|-0-----7---7------|

 [1:35]
 |----------------|------------------|
 |-----7---5--7---|-----7---5---5-7--|
 |-0-----7--------|-0-----7---7------| x2
 |----------------|------------------|

 [1:44]
 |----------------|------------------|
 |----------------|------------------|
 |-----7---5--7---|-----7---5---5-7--| x2
 |-0-----7--------|-0-----7---7------|


CHORUS [1:53]
G|----------------|----------------|----------------|----------------|
D|-----9---7--9---|-----9---7--9---|-----7---5--7---|-----7---5--7---|
A|-------9--------|-------9--------|-0-----7--------|-0-----7--------|
E|-7--------------|-7--------------|----------------|----------------|


GUITAR SOLO [2:02]
G|----------------|------------------|----------------|------------------|
D|----------------|------------------|----------------|------------------|
A|-----7---5--7---|-----7---5---5-7--|-----7---5--7---|-----7---5---5-7--| x5
E|-0-----7--------|-0-----7---7------|-0-----7--------|-0-----7---7------|

 [2:45]
 |----------------|------------------|
 |-----7---5--7---|-----7---5---5-7--|
 |-0-----7--------|-0-----7---7------| x2
 |----------------|------------------|

 [2:54]
 |----------------|------------------|
 |----------------|------------------|
 |-----7---5--7---|-----7---5---5-7--| x2
 |-0-----7--------|-0-----7---7------|


CHORUS [3:03]
G|----------------|----------------|----------------|----------------|
D|-----9---7--9---|-----9---7--9---|-----7---5--7---|-----7---5--7---|
A|-------9--------|-------9--------|-0-----7--------|-0-----7--------|
E|-7--------------|-7--------------|----------------|----------------|


OUTRO [3:12]                                [3:29-END]
G|----------------|------------------|      |---------------|---------------||
D|----------------|------------------|      |---------------|---------------||
A|-----7---5--7---|-----7---5---5-7--|  x4  |---------------|---------------||
E|-0-----7--------|-0-----7---7------| then |-0(let ring)---|---------------||


TABLATURE KEY|=====================================
 x: Mute Note/Mute String
 /: Slide Up
 \: Slide down
(): Optional Note/Variation
 h: Hammer-On
 p: Pull-Off

CONTACT|===========================================
YouTube: http://www.youtube.com/tydogg2443
Twitter: @TheBrokeBassist
Google+: +tydogg2443
===================================================
comments
print report bad tab
1 comment total.
+1 reply
AJdawg311 wrote on June 5 2014, 03:50 pm

I AM THE NEW FACE OF FEAR!

I want to post or [tab]
guest
You may want to rate the tab now too:
select rating
Please do not post tabs as comments. Select "correction" instead!