Oops, an error
Loading. Please wait.

99 Luftballons Live tab

49 views 15 this week
no commentswrite comment
1 2 3 4 5
3 more votes to show rating
add to favorites
×
Save as Personal and add changes to this tab that will be seen only by you. Learn more ›
×
You can save this tab as Personal to edit and correct it or add notes. All changes will be seen only by you. Learn more »
launch autoscroll
font size
0
reset
how to read this tab
guitar tuner
edit
Autoscroll
slow
fast
+/-
esc
set tempo
stop
About this tab version
This is the live cover version of Nena's Song "99 Luftballons". The cover is done by Mark Forster and is found exclusively on Spotify as well as on Radio Hamburg. Was this info helpful? Yes No
Mark Forster
                                      99 Luftballons (99 Red Balloons)
                                Radio Hamburg- / Spotify Berlin- Live version
                                                 Capo Fret 2
                                               Standard Tuning
 
 Video: http://mobil.radiohamburg.de/Videos/(sbc)/3q_video/(id)/2258709/Mark%20Forster%20-%2099%20Luftballons
                        Spotify: https://play.spotify.com/track/0WyUSYGJ1yj3YOU4rN0jr4

[Intro]                                                              
E|--------------------------|--------------------------|
B|--------------------------|--------------------------|
G|-----9-----9-----9-----9--|-----9-----9-----9-----9--|
D|--------------------------|--------------------------|
A|--------------------------|--------------------------|
E|--9-----9-----9-----9-----|--9-----9-----9-----9-----|

[Verse 1]
E|--------------------------|--------------------------|--------------------------|--------------------------|
B|--------------------------|--------------------------|--------------------------|--------------------------|
G|-----9-----9\--3-----3----|---6-----6-----6-----6----|-----9-----9\--3-----3----|---6-----6------6-----5---|
D|--------------------------|--------------------------|--------------------------|--------------------------|
A|--------------------------|--------------------------|--------------------------|--------------------------|
E|--9-------9---2-----2-----|--5-----5-----5-----5-----|--9-------9---2-----2-----|--5-----5-----5-----4-----|

E|--------------------------|--------------------------|--------------------------|--------------------------|
B|--------------------------|--------------------------|--------------------------|--------------------------|
G|-----9-----9\--3-----3----|---6-----6-----6-----6----|-----9-----9\--3-----3----|---6-----6-----6-----6----|
D|--------------------------|--------------------------|--------------------------|--------------------------|
A|--------------------------|--------------------------|--------------------------|--------------------------|
E|--9-------9---2-----2-----|--5-----5-----5-----5-----|--9-------9---2-----2-----|--5-----5-----5-----5-----|

[Chorus]
E|--------------------------|--------------------------|--------------------------|--------------------------|
B|--------------------------|--------------------------|--------------------------|--------------------------|
G|-----9-----9\--3-----3----|---6-----6-----8-----8----|-----9-----9\--3-----3----|---6-----6------8-----8---|
D|--------------------------|--------------------------|--------------------------|--------------------------|
A|--------------------------|--------------------------|--------------------------|--------------------------|
E|--9-------9---2-----2-----|--5-----5-----7-----7-----|--9-------9---2-----2-----|--5-----5-----7-----7-----|

[Verse 2]
E|--------------------------|--------------------------|--------------------------|--------------------------|
B|--------------------------|--------------------------|--------------------------|--------------------------|
G|-----9-----9\--3-----3----|---6-----6-----6-----6----|-----9-----9\--3-----3----|---6-----6------6-----5---|
D|--------------------------|--------------------------|--------------------------|--------------------------|
A|--------------------------|--------------------------|--------------------------|--------------------------|
E|--9-------9---2-----2-----|--5-----5-----5-----5-----|--9-------9---2-----2-----|--5-----5-----5-----4-----|

E|--------------------------|--------------------------|--------------------------|--------------------------|
B|--------------------------|--------------------------|--------------------------|--------------------------|
G|-----9-----9\--3-----3----|---6-----6-----6-----6----|-----9-----9\--3-----3----|---6-----6----------------|
D|--------------------------|--------------------------|--------------------------|--------------------------|
A|--------------------------|--------------------------|--------------------------|--------------------------|
E|--9-------9---2-----2-----|--5-----5-----5-----5-----|--9-------9---2-----2-----|--5-----5-----------------|

[Chorus]
E|--------------------------|--------------------------|--------------------------|--------------------------|
B|--------------------------|--------------------------|--------------------------|--------------------------|
G|-----9-----9\--3-----3----|---6-----6-----8-----8----|-----9-----9\--3-----3----|---6-----6------8-----8---|
D|--------------------------|--------------------------|--------------------------|--------------------------|
A|--------------------------|--------------------------|--------------------------|--------------------------|
E|--9-------9---2-----2-----|--5-----5-----7-----7-----|--9-------9---2-----2-----|--5-----5-----7-----7-----|

[Verse 3]
E|--------------------------|--------------------------|--------------------------|--------------------------|
B|--------------------------|--------------------------|--------------------------|--------------------------|
G|-----9-----9\--3-----3----|---6-----6-----6-----6----|-----9-----9\--3-----3----|---6-----6------6-----5---|
D|--------------------------|--------------------------|--------------------------|--------------------------|
A|--------------------------|--------------------------|--------------------------|--------------------------|
E|--9-------9---2-----2-----|--5-----5-----5-----5-----|--9-------9---2-----2-----|--5-----5-----5-----4-----|

E|--------------------------|--------------------------|--------------------------|--------------------------|
B|--------------------------|--------------------------|--------------------------|--------------------------|
G|-----9-----9\--3-----3----|---6-----6-----6-----6----|-----9-----9\--3-----3----|--------------------------|
D|--------------------------|--------------------------|--------------------------|--------------------------|
A|--------------------------|--------------------------|--------------------------|--------------------------|
E|--9-------9---2-----2-----|--5-----5-----5-----5-----|--9-------9---2-----2-----|--5-----------------------|

[Chorus]
E|--------------------------|--------------------------|--------------------------|--------------------------|
B|--------------------------|--------------------------|--------------------------|--------------------------|
G|-----9-----9\--3-----3----|---6-----6-----8-----8----|-----9-----9\--3-----3----|---6-----6------8-----8---|
D|--------------------------|--------------------------|--------------------------|--------------------------|
A|--------------------------|--------------------------|--------------------------|--------------------------|
E|--9-------9---2-----2-----|--5-----5-----7-----7-----|--9-------9---2-----2-----|--5-----5-----7-----7-----|

E|--------------------------|--------------------------|--------------------------|--------------------------|
B|--------------------------|--------------------------|--------------------------|--------------------------|
G|-----9---------3----------|---6-----6-----8-----8----|-----9-----9\--3-----3----|---6-----6------8-----8---|
D|--------------------------|--------------------------|--------------------------|--------------------------|
A|--------------------------|--------------------------|--------------------------|--------------------------|
E|--9-----------2-----------|--5-----5-----7-----7-----|--9-------9---2-----2-----|--5-----5-----7-----7-----|

[Verse 4]
E|--------------------------|--------------------------|--------------------------|--------------------------|
B|--------------------------|--------------------------|--------------------------|--------------------------|
G|-----9-----9\--3-----3----|---6-----6-----6-----6----|-----9-----9\--3-----3----|---6-----6-----6-----5----|
D|--------------------------|--------------------------|--------------------------|--------------------------|
A|--------------------------|--------------------------|--------------------------|--------------------------|
E|--9-------9---2-----2-----|--5-----5-----5-----5-----|--9-------9---2-----2-----|--5-----5-----5-----4-----|

E|--------------------------|--------------------------|--------------------------|--------------------------|
B|--------------------------|--------------------------|--------------------------|--------------------------|
G|-----9-----9\--3-----3----|---6-----6-----6-----6----|-----9-----9\--3-----3----|---6-----6-----6-----8----|
D|--------------------------|--------------------------|--------------------------|--------------------------|
A|--------------------------|--------------------------|--------------------------|--------------------------|
E|--9-------9---2-----2-----|--5-----5-----5-----5-----|--9-------9---2-----2-----|--5-----5-----5-----7-----|

[Sax-Intro]
E|--------------------------|--------------------------|--------------------------|--------------------------|
B|--------------------------|--------------------------|--------------------------|--------------------------|
G|--9-----------8-----------|--6-----------------------|--9-----------8-----------|--6-----------------4/----|
D|--------------------------|--------------------------|--------------------------|--------------------------|
A|--------------------------|--------------------------|--------------------------|--------------------------|
E|--9-----------7-----------|--5-----------------------|--9-----------7-----------|--5-----------------5/----|

E|--------------------------|--------------------------|--------------------------|--------------------------|
B|--------------------------|--------------------------|--------------------------|--------------------------|
G|--9-----------8-----------|--6-----------------------|--9-----------8-----------|--6-----------------5-----|
D|--------------------------|--------------------------|--------------------------|--------------------------|
A|--------------------------|--------------------------|--------------------------|--------------------------|
E|--9-----------7-----------|--5-----------------------|--9-----------7-----------|--5-----------------5-----|

[Sax + Guitar]
E|--------------------------|--------------------------|--------------------------|---5----------------------|
B|--------------------------|--------------------------|--------------------------|--------------------------|
G|-----9-----9\--3-----3----|---6-----6-----8-----8----|-----9-----9\--3-----3----|---------6------8-----8---|
D|--------------------------|--------------------------|--------------------------|--------------------------|
A|--------------------------|--------------------------|--------------------------|--------------------------|
E|--9-------9---2-----2-----|--5-----5-----7-----7-----|--9-------9---2-----2-----|--5-----5-----7-----7-----|

E|--------------------------|--------------------------|--------------------------|--------------------------|
B|-----9--------------------|---5-----------7----------|--------------------------|--------------------------|
G|-----------9\--3-----3----|---------6-----------8----|-----9-----9\--3-----3----|---6-----6------8-----8---|
D|--------------------------|--------------------------|--------------------------|--------------------------|
A|--------------------------|--------------------------|--------------------------|--------------------------|
E|--9-------9---2-----2-----|--5-----5-----7-----7-----|--9-------9---2-----2-----|--5-----5-----7-----7-----|

E|--------------------------|--------------------------|--------------------------|---5----------------------|
B|--------------------------|--------------------------|--------------------------|--------------------------|
G|-----9-----9\--3-----3----|---6-----6-----8-----8----|-----9-----9\--3-----3----|---------6------8-----8---|
D|--------------------------|--------------------------|--------------------------|--------------------------|
A|--------------------------|--------------------------|--------------------------|--------------------------|
E|--9-------9---2-----2-----|--5-----5-----7-----7-----|--9-------9---2-----2-----|--5-----5-----7-----7-----|



************************************

| \  Slide down
| /  Slide up

************************************
Suggest correction
Creating personal tab
Creating personal tab
You can edit any tab online and save it as your Personal.

You can edit, replace or remove any tab part or add personal notes – all changes will be seen only by you.

Personal tabs can be accessed anytime from any device, even offline.
Learn more »
Give kudos to tab author, rate the tab!
1 2 3 4 5
comments
print report bad tab
guest
You may want to rate the tab now too:
select rating
Wanna post a correction for this tab? Suggest correction