Oops, an error
Loading. Please wait.

Brothers In Arms Live Tab

10,752 views 27 this week
1 commentread comment
1 2 3 4 5
2 more votes to show rating
add to favorites
launch autoscroll
font size
0
reset
how to read this tab
guitar tuner
×
Best way to learn
"Brothers In Arms Live"
Autoscroll
slow
fast
+/-
esc
set tempo
stop
Author
Difficulty
  follow
intermediate
-------------------------------------------------------------------------------
                                         Brothers in Arms - Dire Straits
-------------------------------------------------------------------------------
Tabbed by: Robin Doak
Email: Robin.doak@hotmail.co.uk

Tuning: Standard

[INTRO]
e|---------------------------------------------------------------------------|
B|---------------------------------------------------------------------------|
G|-----------------------------------------4--6--4---------------------------|
D|---------6--8--6-----6h8p----------4--6------------6-4-/6------------------|
A|--4/6----------------------------------------------------------------------|
E|---------------------------------------------------------------------------|

e|---------------------------------------------------------------------------|
B|----4---------------4-7-4----4---------------------------------------------|
G|---4--6-------6b7----------6---6-4\3---------------------------------------|
D|---------------------------------------6-6-4-------------------------------|
A|---------------------------------------------------------------------------|
E|---------------------------------------------------------------------------|

e|---------------------------------------------------------------------------|
B|---------------------------------------------------------------------------|
G|-------4--3----------------------------------------------------------------|
D|--------------6--4----------------4/6--------------------------------------|
A|--------------------6--4--6---2--------------------------------------------|
E|---------------------------------------------------------------------------|
[VOCALS]

************************************

| /   slide up
| \   slide down
| h   hammer-on
| p   pull-off
| ~   vibrato
| +   harmonic
| x   Mute note
| b   Bend
| pb  Pre-bend
| br  Bend release
| pbr Pre-bend release
| brb Bend release bend

************************************

[Tab Notes]

This is my first tab (wasn't easy as i still class myself as a beginner playing 5 years)..
in my opinion It is the nicest sound from the many different intros mark uses's in his
live performances for this song, Watch the Princes Trust 2009 performance on youtube, 
may need too,
to play this tab...
Suggest correction
Give kudos to tab author, rate the tab!
1 2 3 4 5
comments
print report bad tab
1 comment total.
0 reply
robin1987 26 Dec 09, 2010 09:56 AM

there is a correction needs doing, i only noticed after it got approved, the whole 3rd tab needs changed to this bellow

e|---------------------------------------------------------------------------|
B|---------------------------------------------------------------------------|
G|------4--3-----------------------------------------------------------------|
D|------------6--4----------------4/6----------------------------------------|
A|-----------------6--4--6---2-----------------------------------------------|
E|---------------------------------------------------------------------------|


As you can see, the tab submited starts on the B String... when it should start on the G string...

Sorry for the confusion =S

guest
You may want to rate the tab now too:
select rating
Wanna post a correction for this tab? Suggest correction