Oops, an error
Loading. Please wait.

Silvertown Blues Tab

3,817 views 3 this week
4 commentsread comments
1 2 3 4 5
x 6
add to favorites
launch autoscroll
font size
0
reset
how to read this tab
guitar tuner
×
Best way to learn
"Silvertown Blues"
Autoscroll
slow
fast
+/-
esc
set tempo
stop
im really not sure that this is right but i gave it a shot since the song wasnt here! ;)


   Intro:

1|-------------------------|----------------------------------------|
2|----------3----------3---|-----------3--------3---------3---------|
3|-----3-----------3-------|-------3------0-3----------0------------|     
4|-0-----------0-----------|--0-------------------0-----------------|
5|-------------------------|----------------------------------------|
6|-------------------------|----------------------------------------|



feedback and fixing will be thanked!

davidlacker@hotmail.com
Suggest correction
comments
print report bad tab
4 comments total. Showing first comments.
+2 reply
Guitar_George 10 Aug 15, 2004 08:00 PM

i think its

------------------------------------------------
--------3--------3--------3-------1--------3----
-----2--------3--------2-------2--------3-------
--0--------0--------0-------0--------0----------
------------------------------------------------
------------------------------------------------

0 reply
Guitar_George 10 Aug 15, 2004 08:00 PM

nice to see someone tabbing mark out on here tho! :)
knopfler tabs are few and far between..

0 reply
LeftyBlake26 31 Mar 19, 2006 08:24 AM

Short tab. Non accurate. Isnt even close the the real tab. I can tell by ear.

guest
You may want to rate the tab now too:
select rating
Wanna post a correction for this tab? Suggest correction