Oops, an error
Loading. Please wait.

Speedway At Nazareth bass

197 views 3 this week
no commentswrite comment
1 2 3 4 5
3 more votes to show rating
add to favorites
×
Save as Personal and add changes to this tab that will be seen only by you. Learn more ›
×
You can save this tab as Personal to edit and correct it or add notes. All changes will be seen only by you. Learn more »
launch autoscroll
font size
0
reset
guitar tuner
edit
Autoscroll
slow
fast
+/-
esc
set tempo
stop
Author
Difficulty
Speedway At Nazareth
Track by Mark Knopfler taken from his album Sailing To Philadelphia.
Bass performance Glenn Worf. Tab by Bass50611. Not exact as original but
Straight forward song with heaps of pauses before the last guitar solo.
(Plenty of scope for you to put own fills in 3rd solo if so desired)
Comments at bass254@btinternet.com

Intro: No Bass

Verse 1:
G|-------------|
D|---NO BASS---|
A|-------------|
E|-------------|

Bridge 1:
G|-------------|
D|---NO BASS---|
A|-------------|
E|-------------|

1st Solo:          .   .
G|----------------------|
D|---NO BASS------------|
A|--UNTIL END-----------|
E|----------------5---5-|

Verse 2:
Well the brickyard’s there to crucify anyone who will not learn
G|-------------------------------------------------------------------|
D|-------------------------------------------------------------------|
A|-------12--------------------10--------------------------12--------|
E|-------------------------------------------------------------------|

I climbed a mountain..............flat through the turns
G|------------------------------------------------------|
D|------------------------------------------------------|
A|----------12--------------------10--------------------|
E|-------------------------------------------------12---|

But I was down......old pal good as died....And I sat...Gasoline...I Cried
G|------------------------------------------------------------------------|
D|------------------------------------------------------------------------|
A|--------12----------------------10-------------12-----10-----------12---|
E|------------------------------------------------------------------------|

2nd Solo:
G|----------------------------------------------------------------|
D|-7---5-------7---/7----5-------------5h7---5--------------------|
A|---------------------------7------------------------------------|
E|--------------------------------5---------------5-------5-----5-|

Verse 3: Follow same format as Verse 2

Bridge 2:
G|--------------------------------------------------------------|
D|--------------------------------------------------------------|
A|--------------------------------------------------------------|
E|-10---------5--------5-----------3--------0--------5--------3-|

Speedway at Nazareth I made no mis-take
G|-----------------------------------------------------------------|
D|-----------------------------------------------------------------|
A|-----------------------------------------5-5-5-5--3-3-3-3--------|
E|5------------3--------------------5-5-5-5----------------3-3-3-3-|

3rd Solo (Riff A):
G|--------------------------------------------------------------------|
D|--------------------------------------------------------------------|
A|--------------------------------------------------------------------|
E|-1-1-1-1-1-1-1-1--1-1-1-1-1-1-1--1-1-1-1-1-1-1-1-1--1-1-1-1-1-1-1-1-|

G|-------------------------------------------------------------------|
D|-------------------------------------------------------------------|
A|-----------------7-7-5-7---7-7-5-7---8-8-8-8-8-8-8-8-------8-8-8-7-|
E|-0-0-0-0-0-0-0-0------------------------------------8-8-8-8--------|

G|----------------------------------------------------------------|
D|--------5-5-5-5-5-5-5-4-3-3-3-3-3-3-3-3---------3-3-3-3-3-3-3-3-|
A|-5-5-5-5--------------------------------3-3-3-3-----------------|
E|----------------------------------------------------------------|

G|---------------------------------------------------|
D|-2-2-2-2-2-2-2-2-----------------------------------|
A|-------------------------5-5-5-5---3-3-3-3---------|
E|-----------------5-5-5-5-------------------3-3-3-3-|

3rd Solo (Riff B):
G|----------------------------------------------------------------------|
D|----------------------------------------------------------------------|
A|----------------------------------8-8-8-8-8-8-8-8-8---8-8-8-8-8-8-8-8-|
E|-1-1-1-1-1-1-1-1--1-1-1-1-1-1-1-1-------------------------------------|

G|-----------------------------------------------------------------|
D|-----------------------------------------------------------------|
A|-----------------7-7-7-7-7-7-5-7---8-8-8-8-8-8-8-8-------8-8-8-7-|
E|-0-0-0-0-0-0-0-0----------------------------------8-8-8-8--------|

G|----------------------------------------------------------------|
D|--------5-5-5-5-5-5-5-4-3-3-3-3-3-3-3-3---------3-3-3-3-3-3-3-3-|
A|-5-5-5-5--------------------------------3-3-3-3-----------------|
E|----------------------------------------------------------------|

G|----------------------------------------------------|
D|-2-2-2-2-2-2-2-2------------------------------------|
A|----------------------------------------------------|
E|-----------------5-5-5-5-5-5-5-5--5-5-5-5---3-3-3-3-|

3rd Solo (Riff C):
G|-------------------------------------------------------------------|
D|-------------------------------------------------------------------|
A|---------------------------------8-8-8-8-8-8-8-8---8-8-8-8-8-8-8-8-|
E|-1-1-1-1-1-1-1-1--1-1-1-1-1-1-1------------------------------------|

G|-------------------------------------------------------------------------|
D|-------------------------------------------------------------------------|
A|-7-7-7-7-7-7-7-7---7-7-7-7-7-7-7-7---8-8-8-8-10-10-10-10---------8-8-8-7-|
E|---------------------------------------------------------8-8-8-8---------|


G|----------------------------------------------------------------|
D|--------5-5-5-5-5-5-5-4-3-3-3-3-3-3-3-3---------3-3-3-3-3-3-3-3-|
A|-5-5-5-5--------------------------------3-3-3-3-----------------|
E|----------------------------------------------------------------|

G|-----------------------------------------------------|
D|-2-2-2-2-2-2-2-2-------------------------------------|
A|-----------------------------------------------------|
E|-----------------5-5-5-5-5-5-5-5---5-5-5-5---3-3-3-3-|

Repeat 3rd Solo Sections (With Own Fills) To Fade/End:

            
            
Suggest correction
Creating personal tab
Creating personal tab
You can edit any tab online and save it as your Personal.

You can edit, replace or remove any tab part or add personal notes – all changes will be seen only by you.

Personal tabs can be accessed anytime from any device, even offline.
Learn more »
Give kudos to tab author, rate the tab!
1 2 3 4 5
comments
print report bad tab
guest
You may want to rate the tab now too:
select rating
Wanna post a correction for this tab? Suggest correction